Ana Sayfa


















Anathema

> Deep

 Biyografi | Diskografi | Fotoğraflar | Şarkı Sözleri | Akorlar ve Tablar | Forum

Deep
GUITAR 1:
---------

Riff 1
e|-----------------------------------------------------------------|
B|-----------------------0-------------------------------0---------|
G|-------0-------------------------------0-------------------------|
D|---2-------3---2---2-------3---2---2-------3---2---2-------3---2-|
A|-0---0---0---0---0---0---0---0---0---0---0---0---0---0---0---0---|
E|-----------------------------------------------------------------|

e|-----------------------------------------------------|
B|-----------------------0-----------------------------|
G|-------0-------------------------------0-------------|
D|---2-------3---2---2-------3---2---2-------3---2---2-|
A|-----------------------------------------------------|
E|-3---3---3---3---3---3---3---3---3---3---3---3---3---|


Riff 1 - First ending.
e|-------------|
B|---0---------|
G|-------------|
D|-------3---2-|
A|-------------|
E|-3---3---3---|


Riff 1 - Second ending.
e|-0-|
B|-0-|
G|-0-|
D|-2-|
A|---|
E|-3-|



ELECTRIC GUITAR:
----------------

Riff 1b
e|-------------------------------------------------|
B|-------------------------------------------------|
G|----------------4~----------------------4~-------|
D|----5~-3~-2~-------3~-2~----5~-3~-2~-------3~-2~-|
A|-0-----------0-----------0-----------0-----------|
E|-------------------------------------------------|

e|-------------------------------------------------|
B|-------------------------------------------------|
G|----------------4~----------------------4~-------|
D|----5~-3~-2~-------3~-2~----5~-3~-2~-------3~-2~-|
A|-------------------------------------------------|
E|-3-----------3-----------3-----------3-----------|



SOLO:
-----

e|------------------------------------------------------------|
B|------------------------------------------------------------|
G|-----5h7~~------(7)/95~~----(5)4p0h4h5p4p0----(0)h4h5p4p0-|
D|-5h7--------------------------------------------------------|
A|------------------------------------------------------------|
E|------------------------------------------------------------|

e|-----------------------------------------------------------------------------|
B|-----------------------------------------------------------------------------|
G|-----5h7~~----(7)/9/12-12/14~~------12-9-12h14~--12-9-12h14~--12-9-12h14-9~~-|
D|-5h7-------------------------------------------------------------------------|
A|-----------------------------------------------------------------------------|
E|-----------------------------------------------------------------------------|



GUITAR 2:
---------

Riff 1b
e|-----------------------------------------------------------------------|
B|---------------------------------------------3-3--3-3-3-3-3--3-3-3-3-3-|
G|-2-2--2-2-2-2-2--2-2-2-2-2--2-2-2-2-2--2-2-2-0-0--0-0-0-0-0--0-0-0-0-0-|
D|-2-2--2-2-2-2-2--2-2-2-2-2--2-2-2-2-2--2-2-2-0-0--0-0-0-0-0--0-0-0-0-0-|
A|-0-0--0-0-0-0-0--0-0-0-0-0--0-0-0-0-0--0-0-0---------------------------|
E|---------------------------------------------3-3--3-3-3-3-3--3-3-3-3-3-|

e|------------------|
B|-3-3-3-3-3--3-3-3-|
G|-0-0-0-0-0--0-0-0-|
D|-0-0-0-0-0--0-0-0-|
A|------------------|
E|-3-3-3-3-3--3-3-3-|



Riff 2 (Rhythm on Solo)
e|------------------------------------------------------------|
B|-------1--------------0--------------1-------------1--------|
G|-----0----0---------0----0---------0----0--------0----0-----|
D|---2--------2-----0--------0-----2--------2----2--------2---|
A|-3------------3----------------0------------0-------------0-|
E|----------------3------------3------------------------------|

e|-------------------------------------------------------0-|
B|-------1--------------0--------------0------1------3-----|
G|-----0----0---------0----0---------2----2------2-----2---|
D|---3--------3-----0--------0-----2--------2------2-------|
A|-------------------------------0-------------------------|
E|-1------------1-3------------3---------------------------|
Oylar:

Oy Sayısı: 2
 
  Dönemlere göre oylar
  Son 7 Gün 0 0 0 0 0 0.00
  Son 1 Ay 0 0 0 0 0 0.00
  Son 1 Sene 0 0 0 0 0 0.00
  Tümü 0 0 0 2 0 4.00
1 2 3 4 5 ORT
Oy Toplamları
1 2 3 4 5
 
Yorumlar:

 

Gönderen: elininkoru  [29 Eylül 2006 01:23:56]
Okunma Sayısı: 1925


 


Forum | Aktif Üyeler | Sohbet | Mesaj Merkezi | Müzik Dinle | Müzik Listelerim | Video İzle

Yerli Gruplar | Yabancı Gruplar | Amatör Gruplar | Demolar

Biyografiler | Diskografiler | Sanatçı Fotoğrafları | Şarkı Sözleri | Akorlar ve Tablar | Basın Bilgileri

Üyelik | Ayarlar | Üye Ara | İletişim | Reklam



Site içerisindeki materyallerin kaynak gösterilmeden kopyalanması ve yayınlanması yasaktır.
Copyright © 2007 Anatolianrock.com