Ana Sayfa


















Anathema

> Balance

 Biyografi | Diskografi | Fotoğraflar | Şarkı Sözleri | Akorlar ve Tablar | Forum

Balance
Part 1: I N T R O

Riff 1-A                                              x4
|-------------------------------------------------------|
|-------------------------------------------------------|
|-------------------------------------------------------|
|--------------4---4-----------------4---4---5----------|
|----------2---------------------2---------------5------|
|---0----0---0---0---0----0----0---0---0---0---0--------|

Riff 1-B                                              x1
|-------------------------------------------------------|
|-------------------------------------------------------|
|-------------------------------------------------------|
|----------2---4---4-------------2---4---4---5----------|
|---3----3---3---3---3----3----3---3---3---3---3-5------|
|-------------------------------------------------------|

Riff 1-A x1



Part 2: V E R S E

Riff 1-A x1 "Glad to see..."

Riff 1-B x1 "This is the..."

Riff 1-C                                              x1
|-------------------------------------------------------|
|-------------------------------------------------------| "From a
|-------------------------------------------------------| life..."
|----------2---4---4-------------2---4---4---5----------|
|---0----0---0---0---0----0----0---0---0---0---0-5------|
|-------------------------------------------------------|

Riff 1-A x2 "What would you..."

Riff 2-A                                        x2
|-------------------------------------------------|
|-------------------------------------------------| "Did you
|-------------------------------------------------| try..."
|--------------2---2------------------------------|
|----------2---------------------2---4---4--------|
|---2----2---2---2---2----2----2---2---2---2------|

Riff 2-B   x1
|------------|
|------------|
|------------|
|---4--------|
|-----4------|
|------------|

Riff 2-C                                        x1
|-------------------------------------------------|
|-------------------------------------------------| "What you
|-------------------------------------------------| are is..."
|--------------2---2-----------------4---4--------|
|----------2---------------------2----------------|
|---3----3---3---3---3----3----3---3---3---3------|

Riff 2-D                  x2
|---------------------------|
|---------------------------|
|---------------------------|
|---------------------------|
|----------2---4---4--------|
|---5----5---5---5---5------|

Riff 2-E                                        x1
|-------------------------------------------------|
|-------------------------------------------------| Guit. 1
|-------------------------------------------------|
|--------------2---2------------------------------| "What
|----------2--------------4------2---4---4--------| will..."
|---2----2---2---2---2---------2---2---2---2------|

|--------------------------|
|--------------------------|
|--------------------------| Guit. 2
|--------------------------|
|---3-3-3-3-3-3-3\2-2------|
|--------------------------|

Riff 1-A x2 "What would you..."

Riff 1-B x1 "Spill a tear..."

Riff 1-C                                           x2
|----------------------------------------------------|
|----------------------------------------------------| "Melts
|----------------------------------------------------| away..."
|----------2---4---4-------------2---4---4---5-------|
|---2----2---2---2---2----2----2---2---2---2---2-5---|
|----------------------------------------------------|

Riff 1-D               x2
|------------------------|
|------------------------| Guit. 1
|------------------------| "Melts
|----------2---4---4-----| away..."
|---3----3---3---3---3---|
|------------------------|

                     x1
|---12-----------------|
|------12--------------|
|---------12-----------| Guit. 2
|------------12--------| at the end
|---------------14-----| of the riff
|----------------------|

Riff 1-E                                               x1
|--------------------------------------------------------|
|--------------------------------------------------------| "Melts
|--------------------------------------------------------| away..."
|----------2---4---4-------------2---4---4---4---4---4---|
|---0----0---0---0---0----0----0---0---0---0---0---0-----|
|--------------------------------------------------------|



Part 3: D I S T O R T I O N

Riff 3-A                                             x2
|------------------------------------------------------|
|------------------------------------------------------|
|------------------------------------------------------|
|-----------4-4-4-4-4-4-4-4\---------4-4-4-4-5-5-------|
|---2-2-2-2------------------2-2-2-2-------------5-5---|
|---0-0----------------------0-0-----------------------|

Riff 3-B                                             x1
|------------------------------------------------------|
|------------------------------------------------------| "Until
|------------------------------------------------------| death's..."
|---2-2-2-2-4-4-4-4-4-4-4-4--2-2-2-2-4-4-4-4-5-5-------|
|---3-3----------------------3-3-----------------5-5---|
|------------------------------------------------------|

Riff 3-A x1 "...lives..."

Riff 3-C                                                  x1
|-----------------------------------------------------------|
|-----------------------------------------------------------|
|-----------------------------------------------------------|
|-----------4-4-4-4-4-4-4-4-4--5--5--5--5-7-7-7-7-7-7-7-7---|
|---2-2-2-2--------------------3--3--3--3-5-5-5-5-5-5-5-5---|
|---0-0-----------------------------------------------------|

                                                               x1
|----------------------------------------------------------------|
|----------------------------------------------------------------| "aimless..."
|----------------------------------------------------------------|
|---5--5--5--5-7-7-7-7-7-7-7-7-7--5--5--5--5-7-7-7-7-7-7-7-7-7---|
|---3--3--3--3-5-5-5-5-5-5-5-5-5--3--3--3--3-5-5-5-5-5-5-5-5-5---|
|----------------------------------------------------------------|

                                                               x1
|----------------------------------------------------------------|
|----------------------------------------------------------------| "fear
|----------------------------------------------------------------| starts..."
|---2--2--2--2-4-4-4-4-4-4-4-4-4--5--5--5--5-7-7-7-7-7-7-7-7-7---|
|---0--0--0--0-2-2-2-2-2-2-2-2-2--3--3--3--3-5-5-5-5-5-5-5-5-5---|
|----------------------------------------------------------------|


Riff 3-D

Guitar 1:
|-------------------------------------------
|-------------------------------------------
|-------------------------------------------
|--2--2--2--2-2-4-5-5--5--5--5-5-7-9-9--9---
|---------------*----------------*----------
|-------------------------------------------

------------------------------------------
------------------------------------------
------------------------------------------
---9--9-9-10-12-12--12--12--12-12-14-14---
-----------*-----------------------*------
------------------------------------------

---------------------------------------------------
---------------------------------------------------
---9--9--9--9-9-11-12-12--12--12--12-12-14-16-16---
-----------------*-----------------------*---------
---------------------------------------------------
---------------------------------------------------

----------------------------------------------|
----------------------------------------------|
---16--16--16-16-17-19-19--19--19--19-19-21---| NOTE:
------------------*-----------------------*---| * = x9
----------------------------------------------|
----------------------------------------------|

Guitar 2:        x4                  x2
|------------------||------------------||------------------|
|------------------||------------------||------------------|
|------------------||-------2------2---||-------2------2---|
|-------2------2---||---2-2-2--2-2-2---||---2-2-2--2-2-2---|
|---2-2-2--2-2-2---||---3-3----3-3-----||---0-0----0-0-----|
|---0-0----0-0-----||------------------||------------------|
Oylar:

Oy Sayısı: 0
 
  Dönemlere göre oylar
  Son 7 Gün 0 0 0 0 0 0
  Son 1 Ay 0 0 0 0 0 0
  Son 1 Sene 0 0 0 0 0 0
  Tümü 0 0 0 0 0 0
1 2 3 4 5 ORT
Oy Toplamları
1 2 3 4 5
 
Yorumlar:

 

Gönderen: McRLtHe  [26 Temmuz 2009 17:30:37]
Okunma Sayısı: 427


 


Forum | Aktif Üyeler | Sohbet | Mesaj Merkezi | Müzik Dinle | Müzik Listelerim | Video İzle

Yerli Gruplar | Yabancı Gruplar | Amatör Gruplar | Demolar

Biyografiler | Diskografiler | Sanatçı Fotoğrafları | Şarkı Sözleri | Akorlar ve Tablar | Basın Bilgileri

Üyelik | Ayarlar | Üye Ara | İletişim | Reklam



Site içerisindeki materyallerin kaynak gösterilmeden kopyalanması ve yayınlanması yasaktır.
Copyright © 2007 Anatolianrock.com