Ana Sayfa


















Anathema

> A Dying Wish

 Biyografi | Diskografi | Fotoğraflar | Şarkı Sözleri | Akorlar ve Tablar | Forum

A Dying Wish
Intro:
1----------------------------------------------------|
2-----------0------------0------------0------------0-|
3------9-------9----9-------9----9-------9----9------|
4---10---10------10---10------10---10------10---10---|
5-0--------------------------------------------------|
6----------------------------------------------------|

1----------------------------------------------|
2---------0----------0-----------0-----------0-|
3-----0----------0-----------0-----------0-----|
4-7-----7----7-----7----9------9-------9---9---|
5---8----------8----------10--------10---------|
6----------------------------------------------|

1----------------------------------------------------|
2-----------0------------0------------0------------0-|
3------9-------9----9-------9----9-------9----9------|
4---10---10------10---10------10---10------10---10---|
5-0--------------------------------------------------|
6----------------------------------------------------|

1----------------------------------------------|
2---------0----------0-----------0-----------0-|
3-----0----------0-----------0-----------0-----|
4-7-----7----7-----7----9------9----9------9---|
5---8----------8----------10----------10-------|
6----------------------------------------------|

1--------------------------------------------------0-|
2-----------0------------0------------0------------0-|
3------9-------9----9-------9----9-------9----9------|
4---10---10------10---10------10---10------10---10---|
5-0--------------------------------------------------|
6----------------------------------------------------|

1----------------------------------------------|
2-0-------0----------0-----------0-----------0-|
3------0----------0-----------0-----------0----|
4--7-----7----7-----7----9------9-------9---9--|
5----8----------8----------10--------10--------|
6----------------------------------------------|

1----------------------------------------------------|
2-----------0------------0------------0------------0-|
3------9-------9----9-------9----9-------9----9------|
4---10---10------10---10------10---10------10---10---|
5-0--------------------------------------------------|
6----------------------------------------------------|

1----------------------------------------------|
2---------0----------0-----------0-----------0-|
3-----0----------0-----------0-----------0-----|
4-7-----7----7-----7----9------9----9------9---|
5---8----------8----------10----------10-------|
6----------------------------------------------|

play 1 time:                    play 3 times:
1-------------------|          1------------------|
2-------------------|          2------------------|
3---9---------------|          3------------------|
4--------12-10-9-10-|          4-12----12-10-9-10-|
5-0-----------------|          5------------------|
6-------------------|          6------------------|

play 1 time:                    play 3 times:
1---------------------------|  1------------------|
2---------------------------|  2------------------|
3---------------------------|  3------------------|
4-10--9-/-12----12-10-9-10-|  4-12----12-10-9-10-|
5---------------------------|  5------------------|
6---------------------------|  6------------------|

1--------------------------------------------------|
2--------------0-------0------------0------------0-|
3----9----9-------9-------9----9-------9----9------|
4-10---10---10------10------10---10------10---10---|
5--0-----------------------------------------------|
6--------------------------------------------------|

1----------------------------------------------|
2---------0----------0-----------0-----------0-|
3-----0----------0-----------0-----------0-----|
4-7-----7----7-----7----9------9----9------9---|
5---8----------8----------10----------10-------|
6----------------------------------------------|

1----------------------------------------------------|
2-----------0------------0------------0------------0-|
3------9-------9----9------------9-------9----9------|
4---10---10------10---10------10---10------10---10---|
5-0--0----------------------0--0---------------------|
6----------------------------------------------------|

1----------------------------------------------|
2---------0----------0-----------0-----------0-|
3-----0----------0-----------0-----------0-----|
4-7-----7----7-----7----9------9----9------9---|
5---8----------8----------10----------10-------|
6----------------------------------------------|

1----------------------------------------------------|
2-------------------------0------------0-----------0-|
3------9---9----9----9-------9----9-------9----9-----|
4---10--10---10---10---10------10---10------10---0---|
5-0--0-----------------------------------------------|
6----------------------------------------------------|

1----------------------------------------------|
2---------0----------0-----------0-----------0-|
3-----0----------0-----------0-----------0-----|
4-7-----7----7-----7----9------9----9------9---|
5---8----------8----------10----------10-------|
6----------------------------------------------|

1---------------------------------------------------|
2---------------0-------0------------0------------0-|
3------9---9-------9-------9----9-------9----9------|
4---10--10---10------10------10---10------10---10---|
5-0--0----------------------------------------------|
6---------------------------------------------------|

1-----------------------------|
2---------0----------0------0-|
3-----0----------0--------0---|
4-7-----7----7-----7----7-----|
5---8----------8--------------|
6-----------------------------|


play 2 times:
1-----------------------------------------------------------------|
2-----------------------------------------------------------------|
3-----------------------------------------------------------------|
4-12---12-12---12-12---12-12-10-9-10---10-10---10-10---10-10---10-|
5--0----0--0----0--0----0--0--0-0--0----0--0----0--0----0--0----0-|
6-----------------------------------------------------------------|

play 2 times:
1-----------------------------------------------------------------|
2-----------------------------------------------------------------|
3-----------------------------------------------------------------|
4-12---12-12---12-12---12-12-10-9-10---10-10---10-10---10-10---10-|
5--8----8--8----8--8----8--8--8-8--8----8--8----8--8----8--8----8-|
6-----------------------------------------------------------------|
Oylar:

Oy Sayısı: 1
 
  Dönemlere göre oylar
  Son 7 Gün 0 0 0 0 0 0.00
  Son 1 Ay 0 0 0 0 0 0.00
  Son 1 Sene 0 0 0 0 0 0.00
  Tümü 0 0 0 0 1 5.00
1 2 3 4 5 ORT
Oy Toplamları
1 2 3 4 5
 
Yorumlar:

 

Gönderen: evalorme  [08 Ekim 2006 22:28:45]
Okunma Sayısı: 1574


 


Forum | Aktif Üyeler | Sohbet | Mesaj Merkezi | Müzik Dinle | Müzik Listelerim | Video İzle

Yerli Gruplar | Yabancı Gruplar | Amatör Gruplar | Demolar

Biyografiler | Diskografiler | Sanatçı Fotoğrafları | Şarkı Sözleri | Akorlar ve Tablar | Basın Bilgileri

Üyelik | Ayarlar | Üye Ara | İletişim | Reklam



Site içerisindeki materyallerin kaynak gösterilmeden kopyalanması ve yayınlanması yasaktır.
Copyright © 2007 Anatolianrock.com