Ana Sayfa


















Aerosmith

> Janie's Got A Gun

 Biyografi | Diskografi | Fotoğraflar | Şarkı Sözleri | Akorlar ve Tablar | Forum

Janie's Got A Gun
INTRO (0:11) 
 
       Dum,  dum,_ dum, hon-ey  what have you _ done? 
 1                              
E|-----------------------------|----------------------------| 
B|-----------------------------|----------------------------| 
G|-----------------------------|----------------------------| 
D|------------------9----------|-9------------9-------------| 
A|------------------7----------|-7------------7-------------| 
E|-----------------------------|----------------------------| 
 
    Dum,   dum,_ dum it's the  sound of my   gun. 
 3                             
E|----------------------------|-----------------------------| 
B|----------------------------|-----------------------------| 
G|----------------------------|-----------------------------| 
D|9---------------9-----------|-9-------------9-------------| 
A|7---------------7-----------|-7-------------7-------------| 
E|----------------------------|-----------------------------| 
 
       Dum,   dum,_ dum,hon-ey what have you_ done? 
 5                              
E|-----------------------------|----------------------------| 
B|-----------------------------|----------------------------| 
G|-----------------------------|----------------------------| 
D|---9---------------9---------|-9----------9----------9----| 
A|---7---------------7---------|-7----------7----------7----| 
E|-----------------------------|----------------------------| 
 
    Dum,   dum,_ dum it's the sound,  it's the sound.  
 7 
E|-----------------------------|----------------------------| 
B|-----------------------------|----------------------------| 
G|-----------------------------|----------------------------| 
D|9---------------9------------|-9---------------9----------| 
A|7---------------7------------|-7---------------7----------| 
E|-----------------------------|----------------------------|   
 
       Nyah,    nyah,     nyah.                              Nyah,    nyah,     nyah__ 
 9 
E|-----------------------|----------------------------------|-----------------------| 
B|-----------------------|----------------------------------|-----------------------| 
G|-----------------------|----------------------------------|-----------------------| 
D|------------9--------9-|------9--------------9------------|-------9---------9-----| 
A|------------7--------7-|------7--------------7------------|-------7---------7-----| 
E|-----------------------|----------------------------------|-----------------------| 
 
                         Nyah,           nyah,               nyah. 
 12 
E|-----------------------|----------------------------------|-----------------------| 
B|-----------------------|----------------------------------|-----------------------| 
G|---9-------------------|----------------------------------|-----------------------| 
D|---9--------9----------|----------9-------------9---------|------9---------9------| 
A|---7--------9----------|----------7-------------7---------|------7---------7------| 
E|7-----7--7-------------|----------------------------------|-----------------------| 
 
   Nyah,       nyah,       nyah.______________________________  
 15 
E|-----------------------------|---------------------------|------------------------| 
B|-----------------------------|---------------------------|------------------------| 
G|-----------------------------|----9----------------------|------------------------| 
D|---------9------------9------|----9--------9---------9---|--------9------9------9-| 
A|---------7------------7------|----7--------9---------11--|--------12-----12-----12| 
E|-----------------------------|-7-----7--7-----7--7-------|-7--7-------7------7----| 
 
 
VERSE (0:46) 
 
 
          Jan-ie's got a ___ gun. _ 
 18 
E|------------------------------|--------------------------| 
B|------------------------------|--------------------------| 
G|------------------------------|--------------------------| 
D|---------9--------------9-----|----9---------9-----------| 
A|---------7--------------7-----|----7---------9-----------| 
E|------------------------------|-7---------7--------------| 
 
          Jan-ie's got a ___ gun. _ 
 20 
E|------------------------------|--------------------------| 
B|------------------------------|--------------------------| 
G|------------------------------|--------------------------| 
D|---------9--------------9-----|----9---------9-----------| 
A|---------7--------------7-----|----7---------9-----------| 
E|------------------------------|-7---------7--------------| 
 
   whole world's come un  - done                      from 
 22 
E|------------------------------|--------------------------| 
B|------------------------------|--------------------------| 
G|------------------------------|--------------------------| 
D|---------9--------------9-----|----9---------9-----------| 
A|---------7--------------7-----|----7---------9-----------| 
E|------------------------------|-7---------7--------------| 
 
  look-in' sraight  at  the__  sun.__ 
 24 
E|---------------------------------|-----------------------| 
B|---------------------------------|-----------------------| 
G|---------------------------------|-----------------------| 
D|-----------9--------------9------|----9---------9--------| 
A|-----------7--------------7------|----7---------9--------| 
E|---------------------------------|-7---------7-----------| 
 
 
PRE-CHORUS (1:03) 
 
 
      What did her__  dad-dy__  do?___ 
 26 
E|--------------------------------|------------------------| 
B|--------------------------------|------------------------| 
G|-------------1-------1--2-----4-|-------4-----2--4-------| 
D|-------------2-------2--2-----4-|-------4-----2--4-------| 
A|-----2---2------2-------0--0----|-2--2-----2--------2--2-| 
E|-----0---0------0---------------|------------------------| 
 
      What did he__   put you_ through?          They say when 
 28 
E|--------------------------------|---------------------------| 
B|--------------------------------|---------------------------| 
G|-------------1-------1--2-----4-|-------4-----2--4----------| 
D|-------------2-------2--2-----4-|-------4-----2--4----------| 
A|-----2---2------2-------0--0----|-2--2-----2---------2----2-| 
E|-----0---0------0---------------|---------------------------| 
 
 
CHORUS (1:11) 
 
 
     Jan-ie was ar-rest-ed,    they found him un-der-neath a   train.__ 
 30 
E|----4p5--4p5---4p5----4--------|-4p5----4p5----4p5-----4------| 
B|----4p5--4p5---4p5----4--------|-4p5----4p5----4p5-----4------| 
G|----------------------------------|---------------------------------| 
D|----------------------------------|---------------------------------| 
A|----------------------------------|---------------------------------| 
E|----------------------------------|---------------------------------| 
 
                                                    But 
 32 
E|-------------------------|----------------------------| 
B|-------------------------|----------------------------| 
G|-------------------------|----------------------------| 
D|-------2--------0--------|--5------0---------2--------| 
A|-------2--------0--------|--5------0---------2--------| 
E|-0-----------------------|----------------------------| 
 
     man, he had it com-in'. Now that Jan-ie's got a gun she ain't nev - 
 34 
E|----4p5---4p5----4p5----4-------|-4p5----4p5--4p5-----4--------| 
B|----4p5---4p5----4p5----4-------|-4p5----4p5--4p5-----4--------| 
G|-----------------------------------|---------------------------------| 
D|-----------------------------------|---------------------------------| 
A|-----------------------------------|---------------------------------| 
E|-----------------------------------|---------------------------------| 
 
      - er gon-na be the   same.___________________________ 
 36 
E|----4p5-4p5---4p5--4p5-|-----------------|-----------------| 
B|----4p5-4p5---4p5--4p5-|-----------------|-----------------| 
G|---------------------------|-4--4----4----4--|-4--4----4---4---| 
D|---------------------------|-4--4----4----4--|-4--4----4---4---| 
A|---------------------------|-2--2----2----2--|-2--2----2---2---| 
E|---------------------------|-----------------|-----------------| 
 
 
 
BRIDGE (2:17) 
 
 
      Run a- way,               run____           a- way_ from the 
 1 
E|---------------------------------|---------------------------------| 
B|---------------------------------|---------------------------------| 
G|---------------------------------|---------------------------------| 
D|--------9--10p9----10p9----10p9--|---10p9----10p9--10p9---10p9-----| 
A|---------------------------------|---------------------------------| 
E|---------------------------------|---------------------------------| 
 
     pain,_    yeah,_   yeah,__ yeah,  yeah,yeah. 
 3 
E|--------------------------|---------------------| 
B|--------------------------|---------------------| 
G|--------------------------|---------------------| 
D|---9----------------------|---------------------| 
A|--------------------------|---------------------| 
E|--------------------------|---------------------| 
 
      Run         a -way,         run____          a - way_  from the 
 5 
E|-----------------------------------|---------------------------------| 
B|-----------------------------------|---------------------------------| 
G|-----------------------------------|---------------------------------| 
D|-----10p9----10p9----10p9----10p9--|--10p9----10p9----10p9----10p9---| 
A|-----------------------------------|---------------------------------| 
E|-----------------------------------|---------------------------------| 
 
   pain,       yeah,_ yeah,   yeah._ 
 7 
E|-----------------------------------| 
B|-----------------------------------| 
G|-----------------------------------| 
D|---------2-------------0-----------| 
A|---------2-------------0-----------| 
E|-----------------------------------| 
 
     ___ yeah,   yeah,____  yeah._     Run         a- way,  
 8 
E|-----------------------------------|---------------------------------| 
B|-----------------------------------|---------------------------------| 
G|-----------------------------------|---------------------------------| 
D|----5----------0----------2--------|--10p9----10p9----10p9----10p9---| 
A|----5----------0----------2--------|---------------------------------| 
E|-----------------------------------|---------------------------------| 
 
    run          a- way, 
 10 
E|-----------------------------------| 
B|-----------------------------------| 
G|-----------------------------------| 
D|---10p9----10p9----10p9----10p9----| 
A|-----------------------------------| 
E|-----------------------------------| 
 
       run,_____________   run   a   -   way.__________________________ 
 11 
E|-----------------------------------|---------------------------------| 
B|-----------------------------------|---------------------------------| 
G|-----------------------------------|---------------------------------| 
D|-----10p9----10p9----10p9----10p9--|--10p9----10p9----10p9----10p9---| 
A|-----------------------------------|---------------------------------| 
E|-----------------------------------|---------------------------------| 
 
 ____________________________________ 
 13 
E|-----------------------------------| 
B|-----------------------------------| 
G|-----------------------------------| 
D|---10p9----10p9----10p9----10p9----| 
A|-----------------------------------| 
E|-----------------------------------| 
 
 
GUITAR SOLO (2:44) 
 
 
KEY = 
 
L=Hit string and let off 
P=Hit string and pound the next 
^=bend String to shown measure, ex. 3^¼ 
 
 14 
E|---------------------------|----------------------------------| 
B|---------------------------|----------------------------------| 
G|---------------------------|----------------------------------| 
D|--2-2-2-2-2-2-2-2-2-2-2-2--|--2L0----------2------------------| 
A|---------------------------|-------0p2--0-----0p2-------------| 
E|---------------------------|-------------------------0---3^¼--| 
  
 16 
E|-----|0-----0-----------------0----| 
B|-----|0-----0-----------------0----| 
G|-----÷2-----2p4-----4p2--0--24--| 
D|-----------------------------------| 
A|-----------------------------------| 
E|--0--------------------------------| 
 
 17 
E|--2---0-----------0-------------------|-----------------------------------------| 
B|--0---0---3L0-----0----------------0--|-----------------------------------------| 
G|--4------------2-----2^--(2)L0-----0--|-----------------------------------------| 
D|--------------------------------2-----|--2p4-------2--0--4p2L0-----0-----------| 
A|--------------------------------------|--------------------------2--------2--4--| 
E|--------------------------------------|-----------------------------------------| 
 
 19 
E|---------------------------------------| 
B|---------------------------------------| 
G|--0----------0--2--0-------------------| 
D|--0----------0--2--0----2~~~-----7/p9--| 
A|---------------------------------------| 
E|-----3L0-------------------------------| 
 
 20 
E|-----------------------------------|------------------------------------------0--| 
B|--7-----7-----7-----7-----7-----7--|------------------------------------------0--| 
G|--7-----7-----7-----7-----7-----7--|--7p9--9--9--9--9--912--12--12--12--12-----| 
D|-----9-----9-----9-----9-----9-----|--7p9--9--9--9--9--912--12--12--12--12-----| 
A|-----------------------------------|---------------------------------------------| 
E|-----------------------------------|---------------------------------------------| 
 
 22 
E|--------------------------------------------------| 
B|--12--12--12--12--12--12--12--12--12--12--14--14--| 
G|--12--12--12--12--12--12--12--12--12--12--14--14--| 
D|--------------------------------------------------| 
A|--------------------------------------------------| 
E|--------------------------------------------------| 
 
 23 
E|-----------------------------12----------12--|--15--12-----------------12---12----------12--| 
B|--14^½--(14)--12--14p12----------15^---------|----------15p12------12---------15p12-----12--| 
G|--14^½--(14)--12--14p12--14------------------|----------------14^------------------14^------| 
D|-------------------------14------------------|----------------------------------------------| 
A|---------------------------------------------|----------------------------------------------| 
E|---------------------------------------------|----------------------------------------------| 
 
 25 
E|---------------------------------------| 
B|--15---12------------3p2L0----------0--| 
G|-----------14p12------------2^---2--0--| 
D|---------------------------------------| 
A|---------------------------------------| 
E|---------------------------------------| 
 
 26 
E|--------------------------------|-----------------------------| 
B|-----------------------------3--|-----------------------------| 
G|--2p4-----4p2-----0--2p4-----|--4p2-----0--2p4-----4p2--| 
D|--------------------------------|-----------------------------| 
A|--------------------------------|-----------------------------| 
E|--------------------------------|-----------------------------| 
 
 28 
E|-----------0-------0--|--------0-------0-------0-----| 
B|-----0-------0--------|--0-------0-------0--------0--| 
G|--0--2p4----2/p4-----|--2p4----2p4----2p4--------| 
D|----------------------|------------------------------| 
A|----------------------|------------------------------| 
E|----------------------|------------------------------|
Oylar:

Oy Sayısı: 0
 
  Dönemlere göre oylar
  Son 7 Gün 0 0 0 0 0 0
  Son 1 Ay 0 0 0 0 0 0
  Son 1 Sene 0 0 0 0 0 0
  Tümü 0 0 0 0 0 0
1 2 3 4 5 ORT
Oy Toplamları
1 2 3 4 5
 
Yorumlar:

 

Gönderen: ArguSon  [27 Ekim 2006 11:35:39]
Okunma Sayısı: 485


 


Forum | Aktif Üyeler | Sohbet | Mesaj Merkezi | Müzik Dinle | Müzik Listelerim | Video İzle

Yerli Gruplar | Yabancı Gruplar | Amatör Gruplar | Demolar

Biyografiler | Diskografiler | Sanatçı Fotoğrafları | Şarkı Sözleri | Akorlar ve Tablar | Basın Bilgileri

Üyelik | Ayarlar | Üye Ara | İletişim | Reklam



Site içerisindeki materyallerin kaynak gösterilmeden kopyalanması ve yayınlanması yasaktır.
Copyright © 2007 Anatolianrock.com