Ana Sayfa


















Şebnem Ferah

> Yeniden Doğup Gelsem

 Biyografi | Diskografi | Fotoğraflar | Şarkı Sözleri | Akorlar ve Tablar | Forum

Yeniden Doğup Gelsem
|--------------------------------------------------------
|-----------------------------------0-1/5-(5)-6-5-3-5-(5)
|--2--(2)-----------2-----------(2)----------------------
|--2--(2)-----------2-----------(2)----------------------
|--0--(0)-----------0-----------(0)----------------------
|--------------------------------------------------------

w.dist.

|--------
|--6-5-3-5-3---------------------------------------------
|------------3-2-(2)----------------------------2-----(2)
|---------------------------------2h0---2h0-----2-----(2)
|-------------------------------0-----1-----1---0-----(0)
|---------------------------------------------3----------
                               pm.   pm.   pm..
                                       
        Al beni istersen ...           Gökyüzü masmavi...
|-----
|-----
|--(2)-------------------------------2----------(2)------
|--(2)-------------------------------2----------(2)------
|--(0)-----------------------0-1h0---0----------(0)------
|----------------------------------3---------------------


   Cigliklarlar gökyüzünde             Al beni yanina ...
|-----
|-----
|--3----(3)-----5----(5)------------2----------(2)-------
|--3----(3)-----5----(5)------------2----------(2)-------
|--1----(1)-----3----(3)----0-1h0---0----------(0)-------
|---------------------------------3----------------------


            Yeniden ögret ...
|-----
|-----
|--------2------(2)-------3---(3)----5---(5)----3--(3)/--
|------2-2------(2)-------3---(3)----5---(5)----3--(3)/--
|--0-1---0------(0)-------1---(1)----3---(3)----1--(1)/--
|--------------------------------------------------------
 
             Hayalim var ...
     clean              x8
|-------------------------|------------------------------
|----------6-(6)-6--------|------------------------------
|*-------7---------7----*-|------------------------------
|*-----7-------------7--*-|----7--7--7--7--7-------------
|---/5--------------------|----5--5--5--5--5------/------
|-------------------------|------------------------------
  let ring...........         pm............    pickslide

  Yeniden dogup  gelsem         cocuk   kalip büyümezdim.
|-----
|-----
|*----2-----2----2---------------------------------------
|*----2-----2----2----3-----3-----3-----5-----5----5-----
|-----0-0-0-0-0--0-0--3-----3-----3-----5-----5----5-----
|---------------------1-1-1-1-1-1-1-1-1-3-3-3-3-3--3-3---
        pm.   pm   pm   pm.   pm.   pm.   pm.   pm   pm

   ...             Acilan       penceremden         yine
|-----
|-----
|--2-----2-----2-----|-2-----2----2----------------------
|--2-----2-----2-----|-2-----2----2----3-----3-----3-----
|--0-0-0-0-0-0-0-0-0-|-0-0-0-0-0--0-0--3-----3-----3-----
|--------------------|-----------------1-1-1-1-1-1-1-1-1-
     pm.   pm.   pm.     pm.   pm   pm   pm.   pm.   pm.

   seni     severdim     (ilk seferde) x2     (ikinci 
|-----
|-----
|------------------|2-----2-------------*|*-2----2-2---2-
|--5-----5----5----|2-----2----------7/-*|*-2----2-2---2-
|--5-----5----5----|0-0-0-0-0-0-0-0------|--0----0-0---0-
|--3-3-3-3-3--3-3--|---------------------|---------------
     pm.   pm   pm   pm.   pm..... harm.        

    seferde)   x2
|----------------|---------------------------------------
|----------------|---------------------------------------
|--2---3---3-3--*|---3-----(3)----------------------2-/--
|--2---3---3-3--*|---3-----(3)-------2h0---2h0------2-/--
|--0---1---1-1---|---1-----(1)-----0-----1-----1----0-/--
|----------------|-------------------------------3-------
                                   pm    pm    pm.

Oylar:

Oy Sayısı: 0
 
  Dönemlere göre oylar
  Son 7 Gün 0 0 0 0 0 0
  Son 1 Ay 0 0 0 0 0 0
  Son 1 Sene 0 0 0 0 0 0
  Tümü 0 0 0 0 0 0
1 2 3 4 5 ORT
Oy Toplamları
1 2 3 4 5
 
Yorumlar:

 

Gönderen: mysterious  [15 Ağustos 2006 22:40:10]
Okunma Sayısı: 3955


 


Forum | Aktif Üyeler | Sohbet | Mesaj Merkezi | Müzik Dinle | Müzik Listelerim | Video İzle

Yerli Gruplar | Yabancı Gruplar | Amatör Gruplar | Demolar

Biyografiler | Diskografiler | Sanatçı Fotoğrafları | Şarkı Sözleri | Akorlar ve Tablar | Basın Bilgileri

Üyelik | Ayarlar | Üye Ara | İletişim | Reklam



Site içerisindeki materyallerin kaynak gösterilmeden kopyalanması ve yayınlanması yasaktır.
Copyright © 2007 Anatolianrock.com