Ana Sayfa


















Şebnem Ferah

> Yalnız Solo

 Biyografi | Diskografi | Fotoğraflar | Şarkı Sözleri | Akorlar ve Tablar | Forum

Yalnız Solo
E|-----------------------------------------------------------------|
B|------------------------xxxx-14b-----14b-------------------------|
G|------------------------xxxx-15b(16)-15b(16)-14-12-11-12-11------|
D|------------------------xxxx-------------------------------12~~--|
A|----------0*-2*-2*-2*-2*-----------------------------------------|
E|-0*-2*-3*--------------------------------------------------------|

E|------------------------------------------------|
B|------------------------------------------------|
G|------------------------------------------------|
D|-7h8p7------------------------------------------|
A|------10-7-10-7-5h7-5-5--------------------2*~~-|
E|---------------------7-7-5-3-5-3h5p3-3-2-0------|

E|-------------------------------6h7p6------------------|
B|-----------------5h7p5-5-7-7h8------8-7-5~------------|
G|----------------------5-------------------11*-11*-9*~~|
D|--------00-22-44--------------------------------------|
A|---22-44----------------------------------------------|
E|-33---------------------------------------------------|

E|-----------------------------------------------------------|
B|-------------17-19-20-19b(20)-19b^(20)-19-17-13-15-13-12~~~|
G|-15151515151515--------------------------------------------|
D|-14141414141414--------------------------------------------|
A|-----------------------------------------------------------|
E|-----------------------------------------------------------|

E|----------------------------------------------------------------------------|
B|-12~~~12p10-8h10p8-7h8p7----------------------------------------------------|
G|------------------------9p7h9-7-9-11^^^--12121212x-11-12--12h14p1212x-11-12-|
D|-----------------------------------------10101010x-10-10--10-10-1010x-10-10-|
A|----------------------------------------------------------------------------|
E|----------------------------------------------------------------------------|

E|--------------------------------|
B|--------------------------------|
G|-12121212x11111111--------------|
D|-10101010x10101010-12-11--------|
A|-------------------10-9--7~~~~~~|
E|-------------------------0~~~~~~|
Oylar:

Oy Sayısı: 1
 
  Dönemlere göre oylar
  Son 7 Gün 0 0 0 0 0 0.00
  Son 1 Ay 0 0 0 0 0 0.00
  Son 1 Sene 0 0 0 0 0 0.00
  Tümü 0 0 0 0 1 5.00
1 2 3 4 5 ORT
Oy Toplamları
1 2 3 4 5
 
Yorumlar:

 

Gönderen: sahin_871  [01 Ağustos 2010 22:32:39]
Okunma Sayısı: 4241


 


Forum | Aktif Üyeler | Sohbet | Mesaj Merkezi | Müzik Dinle | Müzik Listelerim | Video İzle

Yerli Gruplar | Yabancı Gruplar | Amatör Gruplar | Demolar

Biyografiler | Diskografiler | Sanatçı Fotoğrafları | Şarkı Sözleri | Akorlar ve Tablar | Basın Bilgileri

Üyelik | Ayarlar | Üye Ara | İletişim | Reklam



Site içerisindeki materyallerin kaynak gösterilmeden kopyalanması ve yayınlanması yasaktır.
Copyright © 2007 Anatolianrock.com