Ana Sayfa


















Şebnem Ferah

> Yalnız

 Biyografi | Diskografi | Fotoğraflar | Şarkı Sözleri | Akorlar ve Tablar | Forum

Yalnız
riff1
   e--------------------------             \     e-----------------
   b--------------------------             \     b----------1--0---  riff 2
   g---------0----------0-----             \     g-----------------
   d-------4----------4---4---             \     d-------3---------
   a-----2----------2------2--             /     a----0------------
   E---0----------0---------0-             /     E-----------------



                 riff3 ==>  e-----------------
                            b---------4-------
                            g-------4---4-----
                            d-----4-------4---
                            a---2-------------
                            E-----------------


    Sözlere başlamdan evvel 2 defa riff 1 çalınıyor
    not: gitr tonu chorus ama abartmayın saçma sesler çıkmasın birazda hall reverb

Sözler:

  kim bilir neler geçti başından    riff 1 
  kimse böyle yalnız olamaz         riff 2(2 defa) ve 1 defa da riff1
  anlat birer birer tut ellerimden  riff1
  kimse böyle küskün olamaz         riff2 (2 defa) ve 1 defa da riff1

  cizgi cizgi yuzunde      riff2
  golgeli gozlerinde       riff1
  agir sessizliginde       riff2        
  neler neler var          riff3
  ne hikayeler var         riff3


   Bridge :
     ton: diss ve hall reverb (reverb i abartmayın)
        
        e------------------------
        b------------------------
        g--------------*-*-*-*-*-
        d--2-2-2222----2-2-2222--
        a--2-2-2222----2-2-2222--
        E--0-0-0000----0-0-0000--
 
  Açıklama: Farkettiğiniz üzere yukarda riffin bir kısmına ''*'' işareti koydum şarkı
oraya geldiğinde dikkatli dinlerseniz arkada tiz bir gitar sesi daha var o kısım

        e------------
        b------------
        g--9-9-9999--  şeklinde bişey oluyor.
        d--8-8-8888--
        a--7-7-7777--
        E------------


   Not: metin türkcan canlı performansda önce yukarıdaki riffi daha sonrada bunu 
      çalıyor

  Nakarat:
          her bahar öncesinde        kardelene dönüşmeyi
       e-------------------------------------------------
       b-------------------------------------------------
       g-----------------5------------------------5------
       d--2--------------5-----------2------------5------
       a--2--------------3-----------2------------3------
       E--0--------------------------0-------------------

          kopmayı koparılmayı anlat  
       e-------------------------------------------------
       b-------------------------------------------------
       g-------------------------------------------------
       d--7---------5------------------2-2-2222----------
       a--7---------5------------------2-2-2222 2 defa---
       E--5---------3------------------0-0-0000----------


şarkının 2. kısmıda bu şekilde devam ediyor nakarat ve daha sonra solo geliyor
Oylar:

Oy Sayısı: 0
 
  Dönemlere göre oylar
  Son 7 Gün 0 0 0 0 0 0
  Son 1 Ay 0 0 0 0 0 0
  Son 1 Sene 0 0 0 0 0 0
  Tümü 0 0 0 0 0 0
1 2 3 4 5 ORT
Oy Toplamları
1 2 3 4 5
 
Yorumlar:

 

Gönderen: sahin_871  [01 Ağustos 2010 22:37:11]
Okunma Sayısı: 3497


 


Forum | Aktif Üyeler | Sohbet | Mesaj Merkezi | Müzik Dinle | Müzik Listelerim | Video İzle

Yerli Gruplar | Yabancı Gruplar | Amatör Gruplar | Demolar

Biyografiler | Diskografiler | Sanatçı Fotoğrafları | Şarkı Sözleri | Akorlar ve Tablar | Basın Bilgileri

Üyelik | Ayarlar | Üye Ara | İletişim | Reklam



Site içerisindeki materyallerin kaynak gösterilmeden kopyalanması ve yayınlanması yasaktır.
Copyright © 2007 Anatolianrock.com