Ana Sayfa


















Şebnem Ferah

> Üvey

 Biyografi | Diskografi | Fotoğraflar | Şarkı Sözleri | Akorlar ve Tablar | Forum

Üvey
intro   
   			   
e[---------0-------------------------0----            
B[-------0---0------------0--------3---3--
G[-----2-------2--------2--------2-------- (3 kere )
D[---2-----------2----3--------3----------       
A[-0--------------------------------------
E[----------------------------------------


e[---------0------------------------------          
B[-------0---0------------0---------------
G[-----2-------2--------2-----------------      
D[---2-----------2----3--------0----------       
A[-0--------------------------------------
E[----------------------------------------

Söz

e[------------------------------------------           
B[-0-----0---------0-----0------------------
G[---2-----2---------2-----2---------------- (4 kere)
D[------------------------------------------       
A[-----------------0------------------------
E[-1---------0--------------3--------------


e[-----------------------------------------            B[-
0-----0---------0------------------------
G[---2-----2---------2---1------------------   
D[-------------------------2----------------       
A[-----------------0------------------------
E[-1---------0-----------0------------------



Nakarat, intro ile aynı olacak.

Oylar:

Oy Sayısı: 1
 
  Dönemlere göre oylar
  Son 7 Gün 0 0 0 0 0 0.00
  Son 1 Ay 0 0 0 0 0 0.00
  Son 1 Sene 0 0 0 0 0 0.00
  Tümü 0 0 0 0 1 5.00
1 2 3 4 5 ORT
Oy Toplamları
1 2 3 4 5
 
Yorumlar:

 

Gönderen: mysterious  [15 Ağustos 2006 22:39:43]
Okunma Sayısı: 3114


 


Forum | Aktif Üyeler | Sohbet | Mesaj Merkezi | Müzik Dinle | Müzik Listelerim | Video İzle

Yerli Gruplar | Yabancı Gruplar | Amatör Gruplar | Demolar

Biyografiler | Diskografiler | Sanatçı Fotoğrafları | Şarkı Sözleri | Akorlar ve Tablar | Basın Bilgileri

Üyelik | Ayarlar | Üye Ara | İletişim | Reklam



Site içerisindeki materyallerin kaynak gösterilmeden kopyalanması ve yayınlanması yasaktır.
Copyright © 2007 Anatolianrock.com