Ana Sayfa


















Şebnem Ferah

> Uçurtma

 Biyografi | Diskografi | Fotoğraflar | Şarkı Sözleri | Akorlar ve Tablar | Forum

Uçurtma
İntro

--12--12--12---12--5--7--7--7--7--10--3--3--3--3--7--2--2--2--2}tekrar x2
---------------------------------------------------------------
---------------------------------------------------------------
---------------------------------------------------------------
---------------------------------------------------------------
-------------------------------------------------------------



---------0----------
------0-------------
--------------------
--------------------
--------------------
--------------------
            Gelmişim.

-----3--------------
---------2----------
--------------------
--------------------
--------------------
--------------------
            Geçmişim.


------0-------------
----1---------------
--------------------
--------------------
--------------------
--------------------
Birden aniden         


---------0----------
------0-------------
--------------------
--------------------
--------------------
--------------------
Buharlaştık
Oylar:

Oy Sayısı: 0
 
  Dönemlere göre oylar
  Son 7 Gün 0 0 0 0 0 0
  Son 1 Ay 0 0 0 0 0 0
  Son 1 Sene 0 0 0 0 0 0
  Tümü 0 0 0 0 0 0
1 2 3 4 5 ORT
Oy Toplamları
1 2 3 4 5
 
Yorumlar:

 

Gönderen: _Adela_  [09 Aralık 2011 00:32:17]
Okunma Sayısı: 937


 


Forum | Aktif Üyeler | Sohbet | Mesaj Merkezi | Müzik Dinle | Müzik Listelerim | Video İzle

Yerli Gruplar | Yabancı Gruplar | Amatör Gruplar | Demolar

Biyografiler | Diskografiler | Sanatçı Fotoğrafları | Şarkı Sözleri | Akorlar ve Tablar | Basın Bilgileri

Üyelik | Ayarlar | Üye Ara | İletişim | Reklam



Site içerisindeki materyallerin kaynak gösterilmeden kopyalanması ve yayınlanması yasaktır.
Copyright © 2007 Anatolianrock.com