Ana Sayfa


















Şebnem Ferah

> Sil Baştan Full Tab

 Biyografi | Diskografi | Fotoğraflar | Şarkı Sözleri | Akorlar ve Tablar | Forum

Sil Baştan Full Tab
e------------------|
B------------------|
G-------0------0---| 
D-----9------9---9-|
A---7------6-------|
E-0----------------|

e------------------|
B------------------|
G-------0------0---| 
D-----9------9---9-|
A---7------6-------|
E-0----------------|



e------------------------------------------------------------|
B----------------------------0-------------------------------|
G-------0------0-----------5----------------0---------0------|
D-----9------9---9-------7----------------0---------9--------|
A---7------6-----------0----------------2---------7----------|
E-0-----------------------------------3---------0------------|
 Gücün varmı sevgilim Derin sularda inci tanesi aramaya  


e------------------------------------------------------------|
B----------------------------0-------------------------------|
G-------0------0-----------5----------------0---------0------|
D-----9------9---9-------7----------------0---------9--------|
A---7------6-----------0----------------2---------7----------|
E-0-----------------------------------3---------0------------|
 Cesaretin kaldıysa   Hala benle     aşktan konuşmaya



e-------7-8-8-7-7----5-7-7-5-5----5-7-7-5-5------------------|
B---------------------------------------------8-7----8-7-5---|
G------------------------------------------------------------|
D------------------------------------------------------------|
A------------------------------------------------------------|
E------------------------------------------------------------|


e------------------------------------------------------------|
B----------------------------0-------------------------------|
G-------0------0-----------5----------------0---------0------|
D-----9------9---9-------7----------------0---------9--------|
A---7------6-----------0----------------2---------7----------|
E-0-----------------------------------3---------0------------|
Söyle canım sevgilim  Hayat bize oyun oynuyor olabilir mi 


e------------------------------------------------------------|
B--------------------------------0---------------------------|
G-------0------0---------------5------------0---------0------|
D-----9------9---9-----------7------------0---------9--------|
A---7------6---------------0------------2---------7----------|
E-0-----------------------------------3---------0------------|
Yorgun gibi bir halin var Duyguların karışık olabilir mi 




e---------0--------------------------------------0-----------------------------|
B-------0------0----------------7--------------0------0----------------7-------|
G-----9------9---9----------0-------0--------9------9---9----------0-------0---|
D---7---------------------9---9---9---9----7---------------------9---9---9---9-|
A-0---------------------6----------------0---------------------6---------------|
E------------------------------------------------------------------------------|
Sil baştan başlamak gerek bazen           Hayatı                   sıfırlamak 


e---------0-------------------0-------------------------------------------0---------|
B-------0------0--------------------------------------------------------------------|
G-----5------5---5----------0-------0-----------------8-----------------0-------0---|
D---7---------------------9-------9---9----------7------7-------------9--------9--9-|
A-0---------------------7----------------------6---6------6---------7---------------|
E---------------------0---------------------7---------------7-----0-----------------|
 Sil baştan sevmek   gerek bazen            Herşeyi                unutmak




e---------0--------------------------------------0-----------------------------|
B-------0------0----------------7--------------0------0----------------7-------|
G-----9------9---9----------0-------0--------9------9---9----------0-------0---|
D---7---------------------9---9---9---9----7---------------------9---9---9---9-|
A-0---------------------6----------------0---------------------6---------------|
E------------------------------------------------------------------------------|
Sil baştan başlamak gerek bazen           Hayatı                   sıfırlamak 


e---------0-------------------0-------------------------------------------0---------|
B-------0------0--------------------------------------------------------------------|
G-----5------5---5----------0-------0-----------------8-----------------0-------0---|
D---7---------------------9-------9---9----------7------7-------------9--------9--9-|
A-0---------------------7----------------------6---6------6---------7---------------|
E---------------------0---------------------7---------------7-----0-----------------|
 Sil baştan sevmek   gerek bazen            Herşeyi                unutmak



e-------7-8-8-7-7----5-7-7-5-5----5-7-7-5-5------------------|
B---------------------------------------------8-7----8-7-5---|
G------------------------------------------------------------|
D------------------------------------------------------------|
A------------------------------------------------------------|
E------------------------------------------------------------|



e-----------------------------------------------------------------|
B---------------------------------0-------------------------------|
G-------0------0----------------5----------------0---------0------|
D-----9------9---9------------7----------------0---------9--------|
A---7------6----------------0----------------2---------7----------|
E-0----------------------------------------3---------0------------|
Sanki bugün son günmüş gibi Dolu dolu     yaşamak   istiyorum ben 


e-----------------------------------------------------------------|
B---------------------------------0-------------------------------|
G-------0------0----------------5----------------0---------0------|
D-----9------9---9------------7----------------0---------9--------|
A---7------6----------------0----------------2---------7----------|
E-0----------------------------------------3---------0------------|
 Her ne çıkarsa yoluma     Selam verip     yürümek istiyorum ben 





e---------0--------------------------------------0-----------------------------|
B-------0------0----------------7--------------0------0----------------7-------|
G-----9------9---9----------0-------0--------9------9---9----------0-------0---|
D---7---------------------9---9---9---9----7---------------------9---9---9---9-|
A-0---------------------6----------------0---------------------6---------------|
E------------------------------------------------------------------------------|
Sil baştan başlamak gerek bazen           Hayatı                   sıfırlamak 


e---------0-------------------0-------------------------------------------0---------|
B-------0------0--------------------------------------------------------------------|
G-----5------5---5----------0-------0-----------------8-----------------0-------0---|
D---7---------------------9-------9---9----------7------7-------------9--------9--9-|
A-0---------------------7----------------------6---6------6---------7---------------|
E---------------------0---------------------7---------------7-----0-----------------|
 Sil baştan sevmek   gerek bazen            Herşeyi                unutmak




e---------0--------------------------------------0-----------------------------|
B-------0------0----------------7--------------0------0----------------7-------|
G-----9------9---9----------0-------0--------9------9---9----------0-------0---|
D---7---------------------9---9---9---9----7---------------------9---9---9---9-|
A-0---------------------6----------------0---------------------6---------------|
E------------------------------------------------------------------------------|
Sil baştan başlamak gerek bazen           Hayatı                   sıfırlamak 


e---------0-------------------0-------------------------------------------0---------|
B-------0------0--------------------------------------------------------------------|
G-----5------5---5----------0-------0-----------------8-----------------0-------0---|
D---7---------------------9-------9---9----------7------7-------------9--------9--9-|
A-0---------------------7----------------------6---6------6---------7---------------|
E---------------------0---------------------7---------------7-----0-----------------|
 Sil baştan sevmek   gerek bazen            Herşeyi                unutmak






e---------------------------------12-----------------------------------|
B--12-10-12---12--13-12-----10-12------12--10-8----10--12---10-8--10---|
G----------------------------------------------------------------------|
D----------------------------------------------------------------------|
A----------------------------------------------------------------------|
E----------------------------------------------------------------------|



e----------------------------------------------------------------------------------------------------------------------|
B---------------12--15--13--12--13--12--10----10----10-12---12--13--12---12--8---11--11--12---14----14--16---16-17-16--|
G------------12----------------------------12--------------------------------------------------------------------------|
D---------14-----------------------------------------------------------------------------------------------------------|
A--12--15--------------------------------------------------------------------------------------------------------------|
E----------------------------------------------------------------------------------------------------------------------|






e---------0--------------------------------------0-----------------------------|
B-------0------0----------------7--------------0------0----------------7-------|
G-----9------9---9----------0-------0--------9------9---9----------0-------0---|
D---7---------------------9---9---9---9----7---------------------9---9---9---9-|
A-0---------------------6----------------0---------------------6---------------|
E------------------------------------------------------------------------------|
Sil baştan başlamak gerek bazen           Hayatı                   sıfırlamak 


e---------0-------------------0-------------------------------------------0---------|
B-------0------0--------------------------------------------------------------------|
G-----5------5---5----------0-------0-----------------8-----------------0-------0---|
D---7---------------------9-------9---9----------7------7-------------9--------9--9-|
A-0---------------------7----------------------6---6------6---------7---------------|
E---------------------0---------------------7---------------7-----0-----------------|
 Sil baştan sevmek   gerek bazen            Herşeyi                unutmak




e---------0--------------------------------------0-----------------------------|
B-------0------0----------------7--------------0------0----------------7-------|
G-----9------9---9----------0-------0--------9------9---9----------0-------0---|
D---7---------------------9---9---9---9----7---------------------9---9---9---9-|
A-0---------------------6----------------0---------------------6---------------|
E------------------------------------------------------------------------------|
Sil baştan başlamak gerek bazen           Hayatı                   sıfırlamak 


e---------0-------------------0-------------------------------------------0---------|
B-------0------0--------------------------------------------------------------------|
G-----5------5---5----------0-------0-----------------8-----------------0-------0---|
D---7---------------------9-------9---9----------7------7-------------9--------9--9-|
A-0---------------------7----------------------6---6------6---------7---------------|
E---------------------0---------------------7---------------7-----0-----------------|
 Sil baştan sevmek   gerek bazen            Herşeyi                unutmak





e----------0---------|
B--------------------|
G--------0-------0---|
D------9--------9--9-|
A----7---------------|
E--0-----------------|
 unutmak


e----------0---------|
B--------------------|
G--------0-------0---|
D------9--------9--9-|
A----7---------------|
E--0-----------------|
 unutmak


e----------0---------|
B--------------------|
G--------0-------0---|
D------9--------9--9-|
A----7---------------|
E--0-----------------|
 unutmak


e----------0---------|
B--------------------|
G--------0-------0---|
D------9--------9--9-|
A----7---------------|
E--0-----------------|
 unutmak


e----------0---------|
B--------------------|
G--------0-------0---|
D------9--------9--9-|
A----7---------------|
E--0-----------------|
 unutmak


e----------0---------|
B--------------------|
G--------0-------0---|
D------9--------9--9-|
A----7---------------|
E--0-----------------|
 unutmak
Oylar:

Oy Sayısı: 2
 
  Dönemlere göre oylar
  Son 7 Gün 0 0 0 0 0 0.00
  Son 1 Ay 0 0 0 0 0 0.00
  Son 1 Sene 0 0 0 0 0 0.00
  Tümü 0 0 1 0 1 4.00
1 2 3 4 5 ORT
Oy Toplamları
1 2 3 4 5
 
Yorumlar:

 
guitarpro06  

Üyelik Derecesi:
  


güzel gibi emeğine sağlık denemek lazım :)

 

Mesajın Yazıldığı Tarih: 03 Mayıs 2010 02:57:39

Gönderen: McRLtHe  [27 Eylül 2009 03:26:13]
Okunma Sayısı: 18050


 


Forum | Aktif Üyeler | Sohbet | Mesaj Merkezi | Müzik Dinle | Müzik Listelerim | Video İzle

Yerli Gruplar | Yabancı Gruplar | Amatör Gruplar | Demolar

Biyografiler | Diskografiler | Sanatçı Fotoğrafları | Şarkı Sözleri | Akorlar ve Tablar | Basın Bilgileri

Üyelik | Ayarlar | Üye Ara | İletişim | Reklam



Site içerisindeki materyallerin kaynak gösterilmeden kopyalanması ve yayınlanması yasaktır.
Copyright © 2007 Anatolianrock.com