Ana Sayfa


















Şebnem Ferah

> Sigara

 Biyografi | Diskografi | Fotoğraflar | Şarkı Sözleri | Akorlar ve Tablar | Forum

Sigara
Tuning: e:          h    hammer on-pull up
         B:          /    slide up   
         G:          \    slide down 
         D:          x    palm mute
         A:          r    release
         E:
 
          Intro:
           
    Dm... clean tone-echo
 e)-----------------------|-----------------------|
 B)-----------------------|-----------------------|
 G)-9h10-9-----10-9-------|-9h10-9-----12--10--9--|
 D)--------10---------10--|---------10------------|
 A)-----------------------|-----------------------|
 E)-----------------------|-----------------------|
 
 ------------------------------|
 ------------------------------|
 -9h10-9-----------------------|
 ---------10-12h14-12-10-10/12-|              
 ------------------------------|
 ------------------------------|
 
    Verse1:                          
    Dm             C             |
 e)--------1--0--|-----------3---|
 B)--------------|---------------|
 G)-----2--------|--------0------|
 D)--0-----------|-----2---------|
 A)--------------|--3------------|
 E)--------------|---------------|
 
 solo 
 ---------5--3-----3--------------3----------
 ---------------6-----6--5---5-6-----6----5--
 --------------------------------------------
 --0-----------------------------------------
 --------------------------------------------
 --------------------------------------------
 
   Verse2:
             | C                Dm  
 e)----------|--------------3--|--------------5--|
 B)----------|-----------5-----|-----------6-(5)-|
 G)--5----3--|--------5--------|--------7--------|
 D)----------|-----5-----------|-----7-----------|
 A)----------|--3--------------|--5--------------|
 E)----------|-----------------|-----------------|
 
  Pre-chorus:   =>Distorted
 
   D5          C5         C5                           
 e)------------------------------|
 B)------------------------------|
 G)---7x7x7r----5x5x5r----5x5x5--|
 D)---7x7x7r----5x5x5r----5x5x5--|
 A)---5x5x5r----3x3x3r----3x3x3--|
 E)------------------------------|
 
                     F5       D5       C5
 -------------------|------------------------|
 -------6-------8r--|------------------------|
 -------7-------9r--|----------7x7x7r--5x5x5-|
 -------------------|-3x3x3r---7x7x7r--5x5x5-|              -
 --3-5-----5/7------|-3x3x3r---5x5x5r--3x3x3-|       
 -------------------|-1x1x1r-----------------|
 
 e)-----------------------------------|
 B)-----------------------------------|
 G)-----------------------------------|
 D)-------7-------------12/14----10---|
 A)--/5--------5/10-----10/12----8----|
 E)-----------------------------------|
 
 
                         Dm......    C..
 -----------------------|---------------|
 -outro.->>>--intro-----|---------------| 
 -----------------------|---------------|
 -----------------------|---------------|
 -----------------------|---------------|
 -----------------------|---------------|
Oylar:

Oy Sayısı: 2
 
  Dönemlere göre oylar
  Son 7 Gün 0 0 0 0 0 0.00
  Son 1 Ay 0 0 0 0 0 0.00
  Son 1 Sene 0 0 0 0 0 0.00
  Tümü 2 0 0 0 0 1.00
1 2 3 4 5 ORT
Oy Toplamları
1 2 3 4 5
 
Yorumlar:

 

Gönderen: osur4rOck  [15 Ağustos 2006 12:42:09]
Okunma Sayısı: 12024


 


Forum | Aktif Üyeler | Sohbet | Mesaj Merkezi | Müzik Dinle | Müzik Listelerim | Video İzle

Yerli Gruplar | Yabancı Gruplar | Amatör Gruplar | Demolar

Biyografiler | Diskografiler | Sanatçı Fotoğrafları | Şarkı Sözleri | Akorlar ve Tablar | Basın Bilgileri

Üyelik | Ayarlar | Üye Ara | İletişim | Reklam



Site içerisindeki materyallerin kaynak gösterilmeden kopyalanması ve yayınlanması yasaktır.
Copyright © 2007 Anatolianrock.com