Ana Sayfa


















Şebnem Ferah

> Sana Bilmediğin Birşey Söleyemem

 Biyografi | Diskografi | Fotoğraflar | Şarkı Sözleri | Akorlar ve Tablar | Forum

Sana Bilmediğin Birşey Söleyemem
 E  E  E  E  E  E  E  E     E  E  E  E  E  E  E  E   
E||--------0-----------0-----|--------0-----------0-----|
B||-----7-----7-----7-----7--|-----7-----7-----7-----7--|
G||--9-----------9-----------|--8-----------8-----------|
D||--------------------------|--------------------------|
A||--------------------------|--------------------------|
E||--------------------------|--------------------------|


  E  E  E  E  E  E  E  E     E  E  E  E  E  E  E  E   
--------3-----------3-----|--------3-----------3-----|
-----0-----0-----0-----0--|-----0-----0-----0-----0--|
--5-----------5-----------|--5-----------5-----------|
--------------------------|--------------------------|
--------------------------|--------------------------|
--------------------------|--------------------------|


  E  E  E  E  E  E  E  E     E  E  E  E  E  E  E  E   
--------0-----------0-----|--------0-----------0-----|
-----7-----7-----7-----7--|-----7-----7-----7-----7--|
--9-----------9-----------|--8-----------8-----------|
--------------------------|--------------------------|
--------------------------|--------------------------|
--------------------------|--------------------------|


  E  E  E  E  E  E  E  E     E  E  E  E  E  E  E      
--------3-----------3-----|--------3-----------2----||
-----0-----0-----0-----0--|-----0-----0-----0-------||
--5-----------5-----------|--4-----------2----------||
--------------------------|-------------------------||
--------------------------|-------------------------||
--------------------------|-------------------------||
Oylar:

Oy Sayısı: 0
 
  Dönemlere göre oylar
  Son 7 Gün 0 0 0 0 0 0
  Son 1 Ay 0 0 0 0 0 0
  Son 1 Sene 0 0 0 0 0 0
  Tümü 0 0 0 0 0 0
1 2 3 4 5 ORT
Oy Toplamları
1 2 3 4 5
 
Yorumlar:

 
offbe  

Üyelik Derecesi:
  


bu girişteki solo devamı yok mu?

 

Mesajın Yazıldığı Tarih: 13 Ocak 2008 18:58:46

Gönderen: osur4rOck  [15 Ağustos 2006 12:40:37]
Okunma Sayısı: 4142


 


Forum | Aktif Üyeler | Sohbet | Mesaj Merkezi | Müzik Dinle | Müzik Listelerim | Video İzle

Yerli Gruplar | Yabancı Gruplar | Amatör Gruplar | Demolar

Biyografiler | Diskografiler | Sanatçı Fotoğrafları | Şarkı Sözleri | Akorlar ve Tablar | Basın Bilgileri

Üyelik | Ayarlar | Üye Ara | İletişim | Reklam



Site içerisindeki materyallerin kaynak gösterilmeden kopyalanması ve yayınlanması yasaktır.
Copyright © 2007 Anatolianrock.com