Ana Sayfa


















Şebnem Ferah

> Perdeler

 Biyografi | Diskografi | Fotoğraflar | Şarkı Sözleri | Akorlar ve Tablar | Forum

Perdeler
E-----------------|
 B-----------------|
 G-----------------|  *3 kez*
 D-----------------|  
 A-0h3h5--0h3h5----|  
 E-----------------| 
 
 
 E-------------------------------------------------------|
 B-------------------------------------------------------|
 G-------------------------------------------------------|
 D-------------------------------------------------------|
 A-0h5h7--0h7h8--0h8h10--0h10h12--10~p8----10-8^---------|
 E--------------------------------------10---------------|
 
 
 E-------------------------------------------------------|
 B-10p8---------------13~---13--13b(15)-13---------------|
 G------10p7--12b(14)----14--14-----------10-12-10-12-14-|  
 D-------------------------------------------------------|   
 A-------------------------------------------------------|
 E-------------------------------------------------------|
 
 
 E--------12---------13---------15----------15b(17)-15---|
 B-------------------------------------------------------|
 G-15-14-15---15-14-15---15-14-15---15-14-15-------------|
 D-------------------------------------------------------|
 A-------------------------------------------------------|
 E-------------------------------------------------------|
 
 
 E-13-12----------------------------------|
 B-------15-13----------------------------|
 G-------------15-14-12-10-12b-10-12~-10--|  
 D----------------------------------------|   
 A----------------------------------------|   
 E----------------------------------------|
 
 
 E-------------------------------------------------------|
 B-------------------------------------------------------|
 G--10-10----------------10-10---------------------------|
 D--12-12--12*12*12*12*--12-12---------------------------|
 A-------------------------------------------------------|
 E-------------------------------------------------------|
 
 *h=hammer on*
 *b=bend*
 *p=pull off*
 *=adını bilmiyorum, sadece avuç içinizle teli
  biraz susturun..
Oylar:

Oy Sayısı: 1
 
  Dönemlere göre oylar
  Son 7 Gün 0 0 0 0 0 0.00
  Son 1 Ay 0 0 0 0 0 0.00
  Son 1 Sene 0 0 0 0 0 0.00
  Tümü 0 0 0 0 1 5.00
1 2 3 4 5 ORT
Oy Toplamları
1 2 3 4 5
 
Yorumlar:

 

Gönderen: snakE1I  [14 Ağustos 2006 16:22:03]
Okunma Sayısı: 4297


 


Forum | Aktif Üyeler | Sohbet | Mesaj Merkezi | Müzik Dinle | Müzik Listelerim | Video İzle

Yerli Gruplar | Yabancı Gruplar | Amatör Gruplar | Demolar

Biyografiler | Diskografiler | Sanatçı Fotoğrafları | Şarkı Sözleri | Akorlar ve Tablar | Basın Bilgileri

Üyelik | Ayarlar | Üye Ara | İletişim | Reklam



Site içerisindeki materyallerin kaynak gösterilmeden kopyalanması ve yayınlanması yasaktır.
Copyright © 2007 Anatolianrock.com