Ana Sayfa


















Şebnem Ferah

> Mayın Tarlası - Tab (Versiyon 2)

 Biyografi | Diskografi | Fotoğraflar | Şarkı Sözleri | Akorlar ve Tablar | Forum

Mayın Tarlası - Tab (Versiyon 2)
E||-------------------7h9--7-----------------------|
B||-----7--9--10--------------10--9--10--9--7------|
G||--6------------6----------------------------9---|
D||------------------------------------------------|
A||------------------------------------------------|
E||------------------------------------------------|


E||-----------------10h12--10--9--7-------------9---|
B||--7--9--10------------------------10--9--10------|
G||------------7------------------------------------|
D||-------------------------------------------------|
A||-------------------------------------------------|
E||-------------------------------------------------|


E||---------------7h9--7--------------------------|
B||--7--9--10-------------10--9--10--9h10p9--7----|
G||-----------6---------------------------------9-|
D||-----------------------------------------------|
A||-----------------------------------------------|
E||-----------------------------------------------|


E||-----------------10h12--10--9--7-------------9-----|
B||--7--9--10------------------------10--9--10-----7--|
G||------------7--------------------------------------|
D||---------------------------------------------------|
A||---------------------------------------------------|
E||---------------------------------------------------|
Oylar:

Oy Sayısı: 0
 
  Dönemlere göre oylar
  Son 7 Gün 0 0 0 0 0 0
  Son 1 Ay 0 0 0 0 0 0
  Son 1 Sene 0 0 0 0 0 0
  Tümü 0 0 0 0 0 0
1 2 3 4 5 ORT
Oy Toplamları
1 2 3 4 5
 
Yorumlar:

 

Gönderen: _Adela_  [09 Aralık 2011 00:28:21]
Okunma Sayısı: 1780


 


Forum | Aktif Üyeler | Sohbet | Mesaj Merkezi | Müzik Dinle | Müzik Listelerim | Video İzle

Yerli Gruplar | Yabancı Gruplar | Amatör Gruplar | Demolar

Biyografiler | Diskografiler | Sanatçı Fotoğrafları | Şarkı Sözleri | Akorlar ve Tablar | Basın Bilgileri

Üyelik | Ayarlar | Üye Ara | İletişim | Reklam



Site içerisindeki materyallerin kaynak gösterilmeden kopyalanması ve yayınlanması yasaktır.
Copyright © 2007 Anatolianrock.com