Ana Sayfa


















Şebnem Ferah

> Mayın Tarlası

 Biyografi | Diskografi | Fotoğraflar | Şarkı Sözleri | Akorlar ve Tablar | Forum

Mayın Tarlası
-------------- 
-----------1- 
------2--0--- x 4 solo ( x 4 ritmle) = x 8 
---0---------- 
-------------- 
-------------- 




------0--1----5--3--1--0--1--0--------------0--1------6--5--3--1--0--1--3--0-------- 
---3-------------------------------3--1---3----------------------------------------------- 
-----------2-----------------------------------------3------------------------------------ 
------------------------------------------------------------------------------------------- 
------------------------------------------------------------------------------------------- 
-------------------------------------------------------------------------------------------- 




------0--1----5--3--1--0--1--0--------------0--1-----8--6--5--3-----------5----------- 
---3--------------------------------3--1--3-------------------------3--5--6-----3-------- 
-----------2------------------------------------------3------------------------------------ 
-------------------------------------------------------------------------------------------- 
-------------------------------------------------------------------------------------------- 
--------------------------------------------------------------------------------------------
Oylar:

Oy Sayısı: 5
 
  Dönemlere göre oylar
  Son 7 Gün 0 0 0 0 0 0.00
  Son 1 Ay 0 0 0 0 0 0.00
  Son 1 Sene 0 0 0 0 0 0.00
  Tümü 0 0 1 0 4 4.60
1 2 3 4 5 ORT
Oy Toplamları
1 2 3 4 5
 
Yorumlar:

 

Gönderen: osur4rOck  [15 Ağustos 2006 12:33:21]
Okunma Sayısı: 15126


 


Forum | Aktif Üyeler | Sohbet | Mesaj Merkezi | Müzik Dinle | Müzik Listelerim | Video İzle

Yerli Gruplar | Yabancı Gruplar | Amatör Gruplar | Demolar

Biyografiler | Diskografiler | Sanatçı Fotoğrafları | Şarkı Sözleri | Akorlar ve Tablar | Basın Bilgileri

Üyelik | Ayarlar | Üye Ara | İletişim | Reklam



Site içerisindeki materyallerin kaynak gösterilmeden kopyalanması ve yayınlanması yasaktır.
Copyright © 2007 Anatolianrock.com