Ana Sayfa


















Şebnem Ferah

> İyi Gün Dostlarım(İntro)

 Biyografi | Diskografi | Fotoğraflar | Şarkı Sözleri | Akorlar ve Tablar | Forum

İyi Gün Dostlarım(İntro)
Ritim bölümü
a = aşağı doğru pena vuruşu
y = yukarı doğru pena vuruşu

    a-y-y  a-y-y-a-y-a-y  a-y-y  a-y-y-a-y-a-y
e|--0-0-0--0-0-0-0-0-0-0--0-0-0--0-0-0-0-0-0-0--
B|--0-0-0--4-4-4-4-4-4-4--3-3-3--2-2-2-2-2-2-2--
G|--2-2-2--2-2-2-2-2-2-2--2-2-2--2-2-2-2-2-2-2--
D|--2-2-2--2-2-2-2-2-2-2--2-2-2--2-2-2-2-2-2-2--
A|--0-0-0--0-0-0-0-0-0-0--0-0-0--0-0-0-0-0-0-0--
E|----------------------------------------------

    a-y-y  a-y-y-a-y-a-y  a-a-a  
e|--0-0-0--0-0-0-0-0-0-0--0-0-0--
B|--0-0-0--4-4-4-4-4-4-4--3-3-2--
G|--2-2-2--2-2-2-2-2-2-2--2-2-2--
D|--2-2-2--2-2-2-2-2-2-2--2-2-2--
A|--0-0-0--0-0-0-0-0-0-0--0-0-0--
E|-------------------------------

Solo Bölümü

e|--------------------------------------------5-5-3-2-0------------
B|--2--2-3-2-0--3-5-6-5-6-5-3-2---2--2-3-2-0------------3-2-0-2----
G|------------2-----------------------------2-------------------2--
D|-----------------------------------------------------------------
A|-----------------------------------------------------------------
E|-----------------------------------------------------------------
Oylar:

Oy Sayısı: 0
 
  Dönemlere göre oylar
  Son 7 Gün 0 0 0 0 0 0
  Son 1 Ay 0 0 0 0 0 0
  Son 1 Sene 0 0 0 0 0 0
  Tümü 0 0 0 0 0 0
1 2 3 4 5 ORT
Oy Toplamları
1 2 3 4 5
 
Yorumlar:

 

Gönderen: TerapiB  [29 Haziran 2008 15:21:01]
Okunma Sayısı: 2402


 


Forum | Aktif Üyeler | Sohbet | Mesaj Merkezi | Müzik Dinle | Müzik Listelerim | Video İzle

Yerli Gruplar | Yabancı Gruplar | Amatör Gruplar | Demolar

Biyografiler | Diskografiler | Sanatçı Fotoğrafları | Şarkı Sözleri | Akorlar ve Tablar | Basın Bilgileri

Üyelik | Ayarlar | Üye Ara | İletişim | Reklam



Site içerisindeki materyallerin kaynak gösterilmeden kopyalanması ve yayınlanması yasaktır.
Copyright © 2007 Anatolianrock.com