Ana Sayfa


















Şebnem Ferah

> Hoşçakal

 Biyografi | Diskografi | Fotoğraflar | Şarkı Sözleri | Akorlar ve Tablar | Forum

Hoşçakal
					  hold bend    hold bend                    e---13--12h13p12---------------------------------------------------------------------
B------------------15--13--15--13--14b15---14b15-14-14--14b15-14-14------------------
G------------------------------------------------------------------------------------
D------------------------------------------------------------------------------------
A------------------------------------------------------------------------------------
E------------------------------------------------------------------------------------
							hold bend     hold bend
e---13--12h13p12---------------------------------------------------------------------
B-----------------15--13------13--14b15-(14b15)-(14b15)------------------------------
G-------------------------14-----------------------------12b14-12-12--12b14-12-12----
D------------------------------------------------------------------------------------
A------------------------------------------------------------------------------------
E------------------------------------------------------------------------------------

e---13--12h13p12---------------------------------------------------------------------
B----------------15--13-----13-------------------------------------------------------
G------------------------14----15-----14h15p14s12----12s9--9-10-12-12s14--14b14.5----
D------------------------------------------------------------------------------------
A------------------------------------------------------------------------------------
E------------------------------------------------------------------------------------

e------------------------------------------------------------------------------------
B--13s15-15-----15----17----15----17-----18b20--18h20p18-17-17-18-18s20-18b20s(22)-22
G-------------14---14----14----14----14----------------------------------------------
D------------------------------------------------------------------------------------
A------------------------------------------------------------------------------------
E------------------------------------------------------------------------------------

e-----------------------------------12-17-15---13h15p13-12--12-13h15--13b15---13-----
B-----------------------------12-13--------------------------------------------------
G---------------------12-14----------------------------------------------------------
D------------12-14-15----------------------------------------------------------------
A---12-13-15-------------------------------------------------------------------------
E------------------------------------------------------------------------------------
Oylar:

Oy Sayısı: 2
 
  Dönemlere göre oylar
  Son 7 Gün 0 0 0 0 0 0.00
  Son 1 Ay 0 0 0 0 0 0.00
  Son 1 Sene 0 0 0 0 0 0.00
  Tümü 0 0 0 0 2 5.00
1 2 3 4 5 ORT
Oy Toplamları
1 2 3 4 5
 
Yorumlar:

 

Gönderen: osur4rOck  [15 Ağustos 2006 12:30:08]
Okunma Sayısı: 7273


 


Forum | Aktif Üyeler | Sohbet | Mesaj Merkezi | Müzik Dinle | Müzik Listelerim | Video İzle

Yerli Gruplar | Yabancı Gruplar | Amatör Gruplar | Demolar

Biyografiler | Diskografiler | Sanatçı Fotoğrafları | Şarkı Sözleri | Akorlar ve Tablar | Basın Bilgileri

Üyelik | Ayarlar | Üye Ara | İletişim | Reklam



Site içerisindeki materyallerin kaynak gösterilmeden kopyalanması ve yayınlanması yasaktır.
Copyright © 2007 Anatolianrock.com