Ana Sayfa


















Şebnem Ferah

> Herkes Bilsin İstedim

 Biyografi | Diskografi | Fotoğraflar | Şarkı Sözleri | Akorlar ve Tablar | Forum

Herkes Bilsin İstedim
A----------0h2-0
E---0h2-

E--------0--------------1-----------------0-
B------2---2----------3------------------2--2-
G----2-------2-----3-------------------2-----2---------4-
D--2----------2-----3----------------2--------2------5---
A-0---------------------------------0--------------5-----
E-------------------------------------------------3-----
Herkes bilsin     istedim          nasıl sevdim   ben
Herkes duysun     istedim          neye direndim  ben

A---0-2-3
E-3-----

E---------0-------------0---------------0-
B-------1--1-----------2--2------------1--
G-----0-----0--------2-----2----------0----
D---2---------2----2--------2-----------------
A-3---------------0-----------------3-----
E-------------------------------------      A  g *  A  G
Neler gördü     gözlerim   |     sevmeyin  beni,  beni
Neler duydum     dinledim  |
Aşk böyleyse     sevmeyin  |

A       ** Bb        A                 G
Zaman dursun istedim bugün pes ettim ben
A         Bb          A               G
Herşey sussun istedim masal olayım ben
C           A        C            A
Neler gördü gözlerim neler duydum dinledim
C            A        Bb        A   G   A   G
Aşk böyleyse sevmeyin sevmeyin beni ,   beni

   F  A     G     F  A     G            A
B-6-5-6p5-3---6-5-6p5-3-----2-3-5----2-3-5--2
G------------------------------------------------------2-0

   F  A      G    F  A     G   A            G
E---------------3
B-6-5-6p5-3----5-6-5-3---2-3-5------0-2p0----0
G--------------------------------------------------2

*=b-3-2-0---0     **=b-6h8-6
  g-------2--

Oylar:

Oy Sayısı: 1
 
  Dönemlere göre oylar
  Son 7 Gün 0 0 0 0 0 0.00
  Son 1 Ay 0 0 0 0 0 0.00
  Son 1 Sene 0 0 0 0 0 0.00
  Tümü 0 0 0 1 0 4.00
1 2 3 4 5 ORT
Oy Toplamları
1 2 3 4 5
 
Yorumlar:

 

Gönderen: mysterious  [15 Ağustos 2006 22:40:35]
Okunma Sayısı: 2828


 


Forum | Aktif Üyeler | Sohbet | Mesaj Merkezi | Müzik Dinle | Müzik Listelerim | Video İzle

Yerli Gruplar | Yabancı Gruplar | Amatör Gruplar | Demolar

Biyografiler | Diskografiler | Sanatçı Fotoğrafları | Şarkı Sözleri | Akorlar ve Tablar | Basın Bilgileri

Üyelik | Ayarlar | Üye Ara | İletişim | Reklam



Site içerisindeki materyallerin kaynak gösterilmeden kopyalanması ve yayınlanması yasaktır.
Copyright © 2007 Anatolianrock.com