Ana Sayfa


















Şebnem Ferah

> Gözlerimin Etrafındaki Çizgiler

 Biyografi | Diskografi | Fotoğraflar | Şarkı Sözleri | Akorlar ve Tablar | Forum

Gözlerimin Etrafındaki Çizgiler
Solo

E---------------------------------------------------
B----------------------------------------------------
G-4b-2-------------------------------------/9--------
D------3-3/5/3--2-3---5--7--9---9h10p9--7------------
A----------------------------------------------------
E----------------------------------------------------

E----------------------------------------------------------------
B----------------------------------------------------------------
G--9-12-9/7-5-7----4-5-7-4-7---7-9-10-9h10p9b--/14----16b-----17-
D--------------------------------------------------14------14----
A----------------------------------------------------------------
E----------------------------------------------------------------

E---------------------------------------------------------------------------
B---------------------------------------------18----------------------------
G--16-17-19---/21--22--21b-19-17-19-----16h17----17-16-14---16b-12-14-14----
D---------------------------------------------------------------------------
A---------------------------------------------------------------------------
E---------------------------------------------------------------------------

E---------------------------------------
B------10-------------------------------
G--7h9----9-7h9-------------------------
D----------------10--9--9b-9b-----------
A---------------------------------------
E---------------------------------------

E---------------------------------------
B--9h10--10---12--14--/16--17--19-------
G---------------------------------------
D---------------------------------------
A---------------------------------------
E---------------------------------------

E----------------------------------------------------
B----------------------------------------------------
G---4h5----4--------4h5----4-------4-5-7-5-4---------
D-------7----5-7--------7-----5--7-------------------
A----------------------------------------------------
E----------------------------------------------------

E-----------------5t--7t-8t-10t--12t----------------
B----------6t-8t------------------------------------
G----7t-9t------------------------------------------
D---------------------------------------------------
A---------------------------------------------------
E---------------------------------------------------

Oylar:

Oy Sayısı: 6
 
  Dönemlere göre oylar
  Son 7 Gün 0 0 0 0 0 0.00
  Son 1 Ay 0 0 0 0 0 0.00
  Son 1 Sene 0 0 0 0 0 0.00
  Tümü 1 1 1 2 1 3.00
1 2 3 4 5 ORT
Oy Toplamları
1 2 3 4 5
 
Yorumlar:

 

Gönderen: Admin  [14 Ağustos 2006 20:50:18]
Okunma Sayısı: 10280


 


Forum | Aktif Üyeler | Sohbet | Mesaj Merkezi | Müzik Dinle | Müzik Listelerim | Video İzle

Yerli Gruplar | Yabancı Gruplar | Amatör Gruplar | Demolar

Biyografiler | Diskografiler | Sanatçı Fotoğrafları | Şarkı Sözleri | Akorlar ve Tablar | Basın Bilgileri

Üyelik | Ayarlar | Üye Ara | İletişim | Reklam



Site içerisindeki materyallerin kaynak gösterilmeden kopyalanması ve yayınlanması yasaktır.
Copyright © 2007 Anatolianrock.com