Ana Sayfa


















Şebnem Ferah

> Durma

 Biyografi | Diskografi | Fotoğraflar | Şarkı Sözleri | Akorlar ve Tablar | Forum

Durma
e|-----------------------------|--------------------------------------------|-
B|-----------------------------|--------------------------------------------|-
G|-----------------------------|--------------------------------------------|-
D|-----------------5/7---------|-----------------------------------------5/7|-
A|-5/7---7-----7---3/5-5---5-5-|-8---8-----5---5-----8---5/7---7-----7---3/5|-
E|-3/5---5-5-5-----------------|-6---6-6-6-3---3-3-3-6---3/5---5-5-5--------|-
pm         ...         ........        ...       ...             ...
                              x2
e|----------------------------|-----------------------------------------------
B|----------------------------|-----------------------------------------------
G|----------------------------|-----------------------------------------------
D|----------------------------|-----------------------------------------------
A|----------------------------|-----------------------------------------------
E|-\3-5-5--5--3-5-5--5--5-5-5-|-6-6-6--6--3-3-3--3--0-0-0--3-5-5--5--3-5-5--5-
pm........................................................................... 

e|--------------------------------------------------|-------------------------
b|--------------------------------------------------|-------------------------
G|--------------------------------------------------|-------------------------
D|--------3-3-3-3-3-------5-5-5-5-5-------3-3-3-3---|-------------------------
A|-\3-3-3-1-1-1-1-1-5-5-5-3-3-3-3-3-3-3-3-1-1-1-1-5-|-------------------------
E|-\1-1-1-----------3-3-3-----------1-1-1---------3-|-------------------------
pm    ...   .......   ...   .......   ...   .....                            
                               x2                                  
e|-----------------------------|----------------------------------------------
B|-----------------------------|----------------------------------------------
G|-----------------------------|----------------------------------------------
D|-----------------------------|-------------------------5--7--5--7-----------
A|-\5/7-------------5/7--------|-8--------8--------8-----3--5--3--5-----------
E|-\3/5-5-5-5-5-5-5-3/5-5--5-5-|-6--6--6--6--6--6--6-6-6----------------------
pm      ...........     ......      ....     ....    ...
Oylar:

Oy Sayısı: 1
 
  Dönemlere göre oylar
  Son 7 Gün 0 0 0 0 0 0.00
  Son 1 Ay 0 0 0 0 0 0.00
  Son 1 Sene 0 0 0 0 0 0.00
  Tümü 0 0 0 0 1 5.00
1 2 3 4 5 ORT
Oy Toplamları
1 2 3 4 5
 
Yorumlar:

 

Gönderen: osur4rOck  [15 Ağustos 2006 12:23:37]
Okunma Sayısı: 4331


 


Forum | Aktif Üyeler | Sohbet | Mesaj Merkezi | Müzik Dinle | Müzik Listelerim | Video İzle

Yerli Gruplar | Yabancı Gruplar | Amatör Gruplar | Demolar

Biyografiler | Diskografiler | Sanatçı Fotoğrafları | Şarkı Sözleri | Akorlar ve Tablar | Basın Bilgileri

Üyelik | Ayarlar | Üye Ara | İletişim | Reklam



Site içerisindeki materyallerin kaynak gösterilmeden kopyalanması ve yayınlanması yasaktır.
Copyright © 2007 Anatolianrock.com