Ana Sayfa


















Şebnem Ferah

> Delgeç

 Biyografi | Diskografi | Fotoğraflar | Şarkı Sözleri | Akorlar ve Tablar | Forum

Delgeç
^ bend
r relase (yapılan bend'i bırakma)
~ vibratio
/ slide (kaydırma)
h hammer on (pena kullanmadan aynı teldeki diğer notaya basma)
x ölü nota ( eliniz üstünde dursun ama klavyeye değmesin)




intro (keyboard + gitar)

tellere sadece 0 larda pena ile vuruyoruz, sonuncuda şarkı başlıyor o yüzden en sonda 0h7h10 kısmını  çalmayın 8i uzatıp bitirin 
-----------------------------------------------------------------------------------------------
-----------------------------------------------------------------------------------------------
-----------------------------------------------------------------------------------------------
-----------------------------------------------------------------------------------------------
--0h7h8-(x6)--0h7h10-0h8h10-0h8h10-0h7h10---0h7h8-(8x)---0h7h10-0h8h10-0h8h10-0h7h10-----------
-----------------------------------------------------------------------------------------------
              |..........2kere..........|                |..........2kere..........|


---------------------------

gitar1
-------------------------------------------------------------------------
------------------------------------------------------10^r----10^r-------
--/9---------------------------8h9--8h9p8------------------8-------9-----
-----9-10---9h10---9h10p9-7---------------10-7-10------------------------
-------------------------------------------------------------------------
-------------------------------------------------------------------------
bendler (^) bir notalık...


gitar2

2x                                  2x
|---------------------------------| |---------------------------------|
|---------------------------------| |---------------------------------|
|---------------------------------| |-2--2--2-2-2-2--2--2-2--222-222--|
|-3--3--3-3-3-3--3--3-3--333-333--| |-2--2--2-2-2-2--2--2-2--222-222--|
|-3--3--3-3-3-3--3--3-3--333-333--| |-0--0--0-0-0-0--0--0-0--000-000--|
|-1--1--1-1-1-1--1--1-1--111-111--| |---------------------------------|

---------------------------

gitar1
-------------------------------------------------------------------------
------------------------------------------------------10^r----10^r--12^--
--/9---------------------------8h9--8h9p8------------------8-------------
-----9-10---9h10---9h10p9-7---------------10-7-10------------------------
-------------------------------------------------------------------------
-------------------------------------------------------------------------

gitar2

2x
|---------------------------------||------------------------------------------------------|
|---------------------------------||------------------------------------------------------|
|---------------------------------||-2--2--2-2-2-2--2--2-2--222-222-----2--2--2-2-2-2--5--|
|-3--3--3-3-3-3--3--3-3--333-333--||-2--2--2-2-2-2--2--2-2--222-222-----2--2--2-2-2-2--5--|
|-3--3--3-3-3-3--3--3-3--333-333--||-0--0--0-0-0-0--0--0-0--000-000-----0--0--0-0-0-0--3--|
|-1--1--1-1-1-1--1--1-1--111-111--||------------------------------------------------------|



---------------------------




--------------------------------------------------------------------------0---------------------
-------1--------------------1--------------------0--------1-------3-----------------------------
-----2--------------------2--------------------2--------2-------2-------2-----------------------
---2--------------------2--------------------2--------2-------2-------2-------------------------
-0--------------------0--------------------0--------0-------0-------0---------------------------
------------------------------------------------------------------------------------------------

        gel bir parça ol     kanımdan canımdan

        gel bir parça al     ekmeğimden suyumdan
                                                

------------------------------------------------------------------------------------------------
------------------------------------------------------------------------------------------------
------------------------------------------------------------------------------------------------
------------------------------------------------------------------------------------------------
-/5-------------7------8----------------------/10--12--------------------12---7-----------------
------------------------------------------------------------------------------------------------

 ben zaten düşmüşüm    kaldırımlar yatağım olmuş   gel bir de sen vur,   hadi gel bir de sen vur
 
 ben zaten düşmüşüm    içim dışım korku dolmuş     gel bir de sen vur,


------------------------------------------------------------------------------------------------
------------------------------------------------------------------------------------------------
------222-2-2-2-2-2-2-222222222-----------------------------------------------------------------
------222-2-2-2-2-2-2-222222222-----------------------------------------------------------------
------000-0-0-0-0-0-0-000000000-----------------------------------------------------------------
------------------------------------------------------------------------------------------------

hadi gel





------------------------------------------------------------------------------------------------
------------------------------------------------------------------------------------------------
--2-2--2---2-2--2---2-2--2---2-2--2---2-2--2---2-2--2----2-2--2-2-------------------------------
--2-2--2---2-2--2---2-2--2---2-2--2---2-2--2---2-2--2----2-2--2-2-------------------------------
--0-0--0---0-0--0---0-0--0---0-0--0---0-0--0---0-0--0----0-0--0-0-------------------------------
------------------------------------------------------------------------------------------------

-nasıl olsa alıştım ben bu sert rüzgarlara
+delgeç gibi deleceksin sen de ruhumu


------------------------------------------------------------------------------------------------
------------------------------------------------------------------------------------------------
--2-2--2---2-2--2---2-2--2---2-2--2---2-2--2---2-4/5--7-7---7/5--5--2---------------------------
--2-2--2---2-2--2---2-2--2---2-2--2---2-2--2---2-4/5--7-7---7/5--5--2---------------------------
--0-0--0---0-0--0---0-0--0---0-0--0---0-0--0---0-2/3--5-5---5/3--3--0---------------------------
------------------------------------------------------------------------------------------------

-bu sert iklimli ıssız hayata



------------------------------------------------------------------------------------------------
------------------------------------------------------------------------------------------------
--2-2--2---2-2--2--9---------------------9--------8--------9--------9--10----10-10-10-10--------
--2-2--2---2-2--2--9-------7-------------9----7---8----7---9----7---9--10----10-10-10-10--------
--0-0--0---0-0--0--7-------7-------------7----7---6----7---7----7---7--8-----8--8--8--8---------
---------------------------5------------------5--------5--------5-------------------------------

+biliyorum durma   gel    bir de sen vur     


bir de sen vur kısmında ikinci gitar (4kere yapılıyor, sonuncusu yarım)
------------------------------------------------------------|------------------------------------
------------------------------------------------------------|------------------------------------
--------------------------------------------0h8h9-0h8h9-----|------------------------10-10-10-10-
--------------------------------0h7h9-0h7h9-----------------|------------------------10-10-10-10-
----0h7h10-0h7h10-0h8h10-0h8h10-----------------------------|-0h7h10(x2)-0h8h10(2x)--8--8--8--8--
------------------------------------------------------------|------------------------------------



SOLO
----

solo sırasındaki ritimler

2x                                        2x     
----------------------------------------|----------------------------------------
----------------------------------------|----------------------------------------
----------------------------------------|----------------------------------------
----3-3-3-3-3-3-3-3--3--3-3--333-333----|----7--7-7-7-7-7-7-7--7--7--777--777----
----3-3-3-3-3-3-3-3--3--3-3--333-333----|----7--7-7-7-7-7-7-7--7--7--777--777----
----1-1-1-1-1-1-1-1--1--1-1--111-111----|----5--5-5-5-5-5-5-5--5--5--555--555----





------------------------------------------------------------------------------------------------
--15^--^15r-15^-~15^--13-13-13-15-15-15-16-16-16-15-15-15-16-16-16-18-18-18-16-16-16-18-18-18---
------------------------------------------------------------------------------------------------
------------------------------------------------------------------------------------------------
------------------------------------------------------------------------------------------------
------------------------------------------------------------------------------------------------




------------------------------------------------------------------------------------------------
-20-20-20-18-18-18-20-20-20--^21r-21^-21^----16-18-20-18-16-18-16-18-16-18-20-18-16-18-16-18----
------------------------------------------------------------------------------------------------
------------------------------------------------------------------------------------------------
------------------------------------------------------------------------------------------------
------------------------------------------------------------------------------------------------




------------------------------------------------------------------------------------------------
--21-20-18-21-20-18-21-20-18-21-20-18-21-20-18-20-18----21-20-18-20-18--------------------------
-----------------------------------------------------16----------------16-----------------------
------------------------------------------------------------------------------------------------
------------------------------------------------------------------------------------------------
------------------------------------------------------------------------------------------------




---------15----17----17-19-17----15----17-19-15---------15^-15-12-10-^10r-10^-8-----------------
-^21--17----17----17----------17----17----------17-15----------------------------10-8-10--------
------------------------------------------------------------------------------------------------
------------------------------------------------------------------------------------------------
------------------------------------------------------------------------------------------------
------------------------------------------------------------------------------------------------


biterken yandaki ritim çalınacak.
---------------------------------| |----------------|
---/9--/10--/12-12^-/10----------| |----------------|
---------------------------------| |----------------|
---------------------------------| |---6-7-9-10-6---|
---------------------------------| |---6-7-9-10-6---|
---------------------------------| |---4-5-7-8--4---|
 
Oylar:

Oy Sayısı: 0
 
  Dönemlere göre oylar
  Son 7 Gün 0 0 0 0 0 0
  Son 1 Ay 0 0 0 0 0 0
  Son 1 Sene 0 0 0 0 0 0
  Tümü 0 0 0 0 0 0
1 2 3 4 5 ORT
Oy Toplamları
1 2 3 4 5
 
Yorumlar:

 

Gönderen: osur4rOck  [15 Ağustos 2006 12:22:18]
Okunma Sayısı: 6230


 


Forum | Aktif Üyeler | Sohbet | Mesaj Merkezi | Müzik Dinle | Müzik Listelerim | Video İzle

Yerli Gruplar | Yabancı Gruplar | Amatör Gruplar | Demolar

Biyografiler | Diskografiler | Sanatçı Fotoğrafları | Şarkı Sözleri | Akorlar ve Tablar | Basın Bilgileri

Üyelik | Ayarlar | Üye Ara | İletişim | Reklam



Site içerisindeki materyallerin kaynak gösterilmeden kopyalanması ve yayınlanması yasaktır.
Copyright © 2007 Anatolianrock.com