Ana Sayfa


















Şebnem Ferah

> Can Kırıkları - Tab (Versiyon 5)

 Biyografi | Diskografi | Fotoğraflar | Şarkı Sözleri | Akorlar ve Tablar | Forum

Can Kırıkları - Tab (Versiyon 5)
can KIRIKLARI

---------------------------------------
----------------------------------------
---------0------------------------------
-----2-3---3-3-2-0-3-2------------------
---0-------------------0----------------
----------------------------------------


----------------------------------------------
----------0-----------------------------------  bundan sonra
--------0-------------------------------------  Am(LA) basın
----2-3------3-3-2-0-3------------------------
--0---------------------3----------------------
----------------------------------------------


----------------------------------------------------------------------------
----------------------------------------------------------------------------
----------------------------------------------------------------------------
-7-7-7-7-7-7----9-9-9-9-9-9---10-10-10---12-12-12----14-14-14-14-14-14------
-5-5-5-5-5-5----7-7-7-7-7-7---8--8--8----10-10-10----12-12-12-12-12-12------
----------------------------------------------------------------------------


-------------------------------------------------------------------------------------------
-13-13-13-13-13-13--15-15-15-15-15-15--17-17-17--19-19-19--21-21-21-21-22-21-22-21-22------
-------------------------------------------------------------------------------------------
-------------------------------------------------------------------------------------------
-------------------------------------------------------------------------------------------
-------------------------------------------------------------------------------------------



------------------------------------------------------------------
------------------------------------------------------------------
------------------------------------------------------------------
-7--11-8--12--7--11-----7-8-9-10-11-12-13-------------------------
-5--9--6--10--5--9------5-6-7-8--9--10-11-------------------------
------------------------------------------------------------------
Oylar:

Oy Sayısı: 0
 
  Dönemlere göre oylar
  Son 7 Gün 0 0 0 0 0 0
  Son 1 Ay 0 0 0 0 0 0
  Son 1 Sene 0 0 0 0 0 0
  Tümü 0 0 0 0 0 0
1 2 3 4 5 ORT
Oy Toplamları
1 2 3 4 5
 
Yorumlar:

 

Gönderen: _Adela_  [09 Aralık 2011 00:20:03]
Okunma Sayısı: 1753


 


Forum | Aktif Üyeler | Sohbet | Mesaj Merkezi | Müzik Dinle | Müzik Listelerim | Video İzle

Yerli Gruplar | Yabancı Gruplar | Amatör Gruplar | Demolar

Biyografiler | Diskografiler | Sanatçı Fotoğrafları | Şarkı Sözleri | Akorlar ve Tablar | Basın Bilgileri

Üyelik | Ayarlar | Üye Ara | İletişim | Reklam



Site içerisindeki materyallerin kaynak gösterilmeden kopyalanması ve yayınlanması yasaktır.
Copyright © 2007 Anatolianrock.com