Ana Sayfa


















Şebnem Ferah

> Can Kırıkları - Tab (Versiyon 4)

 Biyografi | Diskografi | Fotoğraflar | Şarkı Sözleri | Akorlar ve Tablar | Forum

Can Kırıkları - Tab (Versiyon 4)
-0--1-3-----1--0-----1--0---------------------------
------------------3---------------------------------
--------------------------2-------------------------
-2----------2---------------------------------------
----------------------------------------------------
----------------------------------------------------




--0---1--3--1---0-----------------------------------
-------------------3---1----------------------------
-------------------------------2--------------------
--2---------2---------------------------------------
--------------------------------------0-------------
----------------------------------------------------
Oylar:

Oy Sayısı: 0
 
  Dönemlere göre oylar
  Son 7 Gün 0 0 0 0 0 0
  Son 1 Ay 0 0 0 0 0 0
  Son 1 Sene 0 0 0 0 0 0
  Tümü 0 0 0 0 0 0
1 2 3 4 5 ORT
Oy Toplamları
1 2 3 4 5
 
Yorumlar:

 

Gönderen: _Adela_  [09 Aralık 2011 00:19:39]
Okunma Sayısı: 1281


 


Forum | Aktif Üyeler | Sohbet | Mesaj Merkezi | Müzik Dinle | Müzik Listelerim | Video İzle

Yerli Gruplar | Yabancı Gruplar | Amatör Gruplar | Demolar

Biyografiler | Diskografiler | Sanatçı Fotoğrafları | Şarkı Sözleri | Akorlar ve Tablar | Basın Bilgileri

Üyelik | Ayarlar | Üye Ara | İletişim | Reklam



Site içerisindeki materyallerin kaynak gösterilmeden kopyalanması ve yayınlanması yasaktır.
Copyright © 2007 Anatolianrock.com