Ana Sayfa


















Şebnem Ferah

> Bu Aşk Fazla Sana - Tab (Versiyon 5)

 Biyografi | Diskografi | Fotoğraflar | Şarkı Sözleri | Akorlar ve Tablar | Forum

Bu Aşk Fazla Sana - Tab (Versiyon 5)
e -----------10-10-9------7-7-------}
b -7-7-8-8-7---------10-7-----8-----}
g ------------------------------9---}    2X
d ----------------------------------}
a ----------------------------------}
e ----------------------------------}

e -----------10-7---
b -7-7-8-10---------
g ------------------
d ------------------        burdan sonra şarkıya giriyoruz
a ------------------
e ------------------
Oylar:

Oy Sayısı: 0
 
  Dönemlere göre oylar
  Son 7 Gün 0 0 0 0 0 0
  Son 1 Ay 0 0 0 0 0 0
  Son 1 Sene 0 0 0 0 0 0
  Tümü 0 0 0 0 0 0
1 2 3 4 5 ORT
Oy Toplamları
1 2 3 4 5
 
Yorumlar:

 

Gönderen: _Adela_  [09 Aralık 2011 00:17:31]
Okunma Sayısı: 1299


 


Forum | Aktif Üyeler | Sohbet | Mesaj Merkezi | Müzik Dinle | Müzik Listelerim | Video İzle

Yerli Gruplar | Yabancı Gruplar | Amatör Gruplar | Demolar

Biyografiler | Diskografiler | Sanatçı Fotoğrafları | Şarkı Sözleri | Akorlar ve Tablar | Basın Bilgileri

Üyelik | Ayarlar | Üye Ara | İletişim | Reklam



Site içerisindeki materyallerin kaynak gösterilmeden kopyalanması ve yayınlanması yasaktır.
Copyright © 2007 Anatolianrock.com