Ana Sayfa


















Şebnem Ferah

> Bu Aşk Fazla Sana - Akor (Versiyon 4)

 Biyografi | Diskografi | Fotoğraflar | Şarkı Sözleri | Akorlar ve Tablar | Forum

Bu Aşk Fazla Sana - Akor (Versiyon 4)
INTRO SOLO 
  
 E----------11-10-----------------------------------| 
 B--8-8h9-8-------11-8~-11/13~-11~---11/13-11-------| 
 G---------------------------------8----------10-12-| 
 D--------------------------------------------------| 
 A--------------------------------------------------| 
 E--------------------------------------------------| 
  
  
 E--------11-10-----------------------------------------| 
 B--8h9-8-------11-8~-11/13~-11~-4-6-8-9-11-13-15-16-13-| 
 G------------------------------------------------------| 
 D------------------------------------------------------| 
 A------------------------------------------------------| 
 E------------------------------------------------------| 
  
  
 E--------------------------------------------| 
 B--------------------------------------------| 
 G--------------------------------------------| 
 D--------------------------------------------| 
 A-------------------11~-10/9/8/7/6/5/4/3/2/1-| 
 E--------------------------------------------| 
 ..sevmek gibisi yok. 
  
  
  
 E--------------------------------------| 
 B----------------13-15-16-18-16-15-16~-| 
 G--------------------------------------| 
 D--------------------------------------| 
 A--------------------------------------| 
 E--------------------------------------| 
 ..varlığım biir... 
  
  
  
 E---------------------------| 
 B---------------------------| 
 G---------------------------| 
 D---------------------------| 
 A-------------5~-3-5-3------| 
 E----------------------4-3~-| 
 ..fazla sanaaa... 
  
  
  
 INTRO SOLO (Nakarattan sonra 2. kısım söze başlamadan önce) 
  
 E----------11-10-----------------------------------| 
 B--8-8h9-8-------11-8~-11/13~-11~---11/13-11-------| 
 G---------------------------------8----------10-12-| 
 D--------------------------------------------------| 
 A--------------------------------------------------| 
 E--------------------------------------------------| 
  
  
 E--------11-10---------------------------------------| 
 B--8h9-8-------11-8~-11/13~-11~------------15-16-13~-| 
 G-------------------------------8-10-12-13-----------| 
 D----------------------------------------------------| 
 A----------------------------------------------------| 
 E----------------------------------------------------| 
  
  
 SOLO 
  
 E-------------------------------------------------------| 
 B-------------------------------------------------------| 
 G--10-12~-10-12-13-12-10-12-10-12~-10-12-12-13-12-10-12-| 
 D-------------------------------------------------------| 
 A-------------------------------------------------------| 
 E-------------------------------------------------------| 
  
  
 E---------------------------------------------------| 
 B---------------------------------------------------| 
 G--10-8-7-8--7h8h10--8h10h12--10h12h13--13/17-15-13-| 
 D---------------------------------------------------| 
 A---------------------------------------------------| 
 E---------------------------------------------------| 
  
  
 E------------------| 
 B------------------| 
 G-13-15-17-17/19---| 
 D------------------| 
 A------------------| 
 E------------------|
Oylar:

Oy Sayısı: 0
 
  Dönemlere göre oylar
  Son 7 Gün 0 0 0 0 0 0
  Son 1 Ay 0 0 0 0 0 0
  Son 1 Sene 0 0 0 0 0 0
  Tümü 0 0 0 0 0 0
1 2 3 4 5 ORT
Oy Toplamları
1 2 3 4 5
 
Yorumlar:

 

Gönderen: _Adela_  [09 Aralık 2011 00:13:20]
Okunma Sayısı: 1602


 


Forum | Aktif Üyeler | Sohbet | Mesaj Merkezi | Müzik Dinle | Müzik Listelerim | Video İzle

Yerli Gruplar | Yabancı Gruplar | Amatör Gruplar | Demolar

Biyografiler | Diskografiler | Sanatçı Fotoğrafları | Şarkı Sözleri | Akorlar ve Tablar | Basın Bilgileri

Üyelik | Ayarlar | Üye Ara | İletişim | Reklam



Site içerisindeki materyallerin kaynak gösterilmeden kopyalanması ve yayınlanması yasaktır.
Copyright © 2007 Anatolianrock.com