Ana Sayfa


















Şebnem Ferah

> Bu Aşk Fazla Sana

 Biyografi | Diskografi | Fotoğraflar | Şarkı Sözleri | Akorlar ve Tablar | Forum

Bu Aşk Fazla Sana
Bm                   G                      Bm
e|----------10-9-------7-7-------7-7------------|
B|---7-8-7-------10-7------10---------10------7-|
G|----------------------------7-----------7-9---|
D|----------------------------------------------|
A|----------------------------------------------|
E|----------------------------------------------|
                     G                     Bm
e|----------10-9------7-7--------------7-9-10-7~~-|
B|---7-8-7-------10-7-----10-----7-8-9------------|
G|---------------------------7-9------------------|
D|------------------------------------------------|
A|------------------------------------------------|
E|------------------------------------------------|

SÖZ:
               G                 Bm
Denize açıldım sevmeye sevilmeye
                 G          Bm
Anladımki sevmek gibisi yok
                 G                      Bm
Yağmura soyundum yavaş yavaş yağar diye
                  G          Am
Damlalarda yüzmek gibisi yok    
         
GEÇİŞ:

     F#           Bm  Am       
Yokluğun varlığın bir
      F#          Bm  
Dünüm yok yarınım sır
               
NAKARAT:
                 G  
Nasıl inanırım sana
           Bm
Bu yürek ağır bana
            G                       Bm      
Sevgin öyle uzaklarda nefes alsamda yanımda 
Bm                G
   Bu aşk fazla sana

e|----------------------------|
B|----------------------------|
G|----------------------------|
D|----------------------------|
A|--4h5p4----4----------------|
E|--------7----7-5-7----------|

SOLO:

e|---------------------|
B|----7---7-7br(8)-----|
G|-/9---9----------9---|X2
D|---------------------|
A|---------------------|
E|---------------------|

e|---------------------------7-----------7-9--|
B|----------------------7--7---10-8-8-10------|
G|-9-7--6-7--6-7-9--7-9---9-------------------|
D|--------------------------------------------|
A|--------------------------------------------|
E|--------------------------------------------|

Şarkı trafiği:

Intro
Söz 
Geçiş 
Nakarat x2
Intro
Söz
Geçiş
Nakarat x2
Solo x2
Geçiş
Nakrat x2
Oylar:

Oy Sayısı: 4
 
  Dönemlere göre oylar
  Son 7 Gün 0 0 0 0 0 0.00
  Son 1 Ay 0 0 0 0 0 0.00
  Son 1 Sene 0 0 0 0 0 0.00
  Tümü 0 0 0 0 4 5.00
1 2 3 4 5 ORT
Oy Toplamları
1 2 3 4 5
 
Yorumlar:

 

Gönderen: Grendayy67  [10 Kasım 2006 04:07:30]
Okunma Sayısı: 6562


 


Forum | Aktif Üyeler | Sohbet | Mesaj Merkezi | Müzik Dinle | Müzik Listelerim | Video İzle

Yerli Gruplar | Yabancı Gruplar | Amatör Gruplar | Demolar

Biyografiler | Diskografiler | Sanatçı Fotoğrafları | Şarkı Sözleri | Akorlar ve Tablar | Basın Bilgileri

Üyelik | Ayarlar | Üye Ara | İletişim | Reklam



Site içerisindeki materyallerin kaynak gösterilmeden kopyalanması ve yayınlanması yasaktır.
Copyright © 2007 Anatolianrock.com