Ana Sayfa


















Şebnem Ferah

> Bu Aşk Fazla Sana

 Biyografi | Diskografi | Fotoğraflar | Şarkı Sözleri | Akorlar ve Tablar | Forum

Bu Aşk Fazla Sana
 Cm                                     G#               
E||-----------------------11--10--------------6\-8----6----|
B||--8----8--9----8--8------------11-----------------------|
G||-------------------------------------12-----------------|
D||------
A||------
E||------

                            Cm
-------6\-8----6------------------------------------11----|
-------------------------------8----8--9----8--8----------|
--8-----------------8----10-------------------------------|
------
------
------

                  G#
--10--------------6\-8----6--------------------------8--10--11--8~-----||
------11----------------------------------8----11----------------------||
------------12-----------------8----10---------------------------------||
------
------
------


(A) = riff A
(B) = riff B
(C) = riff C
(D) = riff D


Riff A
E||----------------||
B||----------------||
G||----------------||
D||--5r-------5----||
A||----------------||
E||----------------||



Riff B1 (ilk 2 tekrarda çalınacak)
E||--------------13------------------------------||
B||--13--15--16--------16----15----16------------||
G||--------------------------------------15------||
D||----------------------------------------------||
A||----------------------------------------------||
E||----------------------------------------------||

Riff C1 (ilk 2 tekrarda çalınacak)
E||--------------------||
B||--15----16--13------||
G||--------------------||
D||--------------------||
A||--------------------||
E||--------------------||


Riff B2 (yalnız 3. Tekrarda riff B1 yerine çalınacak)
E||----------------------------------------------------------------||
B||--13--15--15b---13--15--15b---13--15--15--15h16p15------13--15--||
G||----------------------------------------------------15----------||
D||--------
A||--------
E||--------

Riff C2 (yalnız 3. Tekrarda riff C1 yerine çalınacak)
E||----------------------------------------------------------||
B||--16--15--13--11h13p11-9-8h9-6h8-4h6-3h4-4h6-6h8-8h9-9h11-||
G||----------------------------------------------------------||    
D||--------
A||--------
E||--------

Riff D
E||------------------------||
B||------------------------||
G||--6b---4--6--4----------||
D||----------------5--4~---||
A||------------------------||
E||------------------------||



SOLO (2. tekrar sonunda)

     Cm
E||------------------------------------------------------------------|
B||------------------------------------------------------------------|
G||--10------12--------10--12----13----12--12--10--10------12--------|
D||-----
A||-----
E||-----

                       G#
-------------------------------------------------------------------------------|
-------------------------------------------------------------------------------|
10-12--12--13--12--10--12--10--------------------------------------------------|
-----------------------------------13------12----13--------12--13--13/-15------|
-------
-------

                                                               A#
--------------------------------------------------------------------||
--------------------------------------------------------------------||
------------------------------17--15-------------15----17--17/-19---||
--13--15--15/-17------15--17------------18--18----------------------||
------
------
Oylar:

Oy Sayısı: 1
 
  Dönemlere göre oylar
  Son 7 Gün 0 0 0 0 0 0.00
  Son 1 Ay 0 0 0 0 0 0.00
  Son 1 Sene 0 0 0 0 0 0.00
  Tümü 0 0 0 0 1 5.00
1 2 3 4 5 ORT
Oy Toplamları
1 2 3 4 5
 
Yorumlar:

 

Gönderen: osur4rOck  [15 Ağustos 2006 12:15:24]
Okunma Sayısı: 7518


 


Forum | Aktif Üyeler | Sohbet | Mesaj Merkezi | Müzik Dinle | Müzik Listelerim | Video İzle

Yerli Gruplar | Yabancı Gruplar | Amatör Gruplar | Demolar

Biyografiler | Diskografiler | Sanatçı Fotoğrafları | Şarkı Sözleri | Akorlar ve Tablar | Basın Bilgileri

Üyelik | Ayarlar | Üye Ara | İletişim | Reklam



Site içerisindeki materyallerin kaynak gösterilmeden kopyalanması ve yayınlanması yasaktır.
Copyright © 2007 Anatolianrock.com