Ana Sayfa


















Şebnem Ferah

> Ben Şarkımı Söylerken

 Biyografi | Diskografi | Fotoğraflar | Şarkı Sözleri | Akorlar ve Tablar | Forum

Ben Şarkımı Söylerken
 * Palm Mute
~ Vibrato
/ Slide

Distorition Solo A:
     A5                        Bb5       G5       
e |--------------------|----------------------|
B |--------------------|----------------------|
G |--------------------|----------------------|
D |--------------------|----------------------|
A |---5-/7---7~-7-7--7~|-7-7---7-5----5-4-----|
E |---3-/5-------------|-----------6------5-3-|
                * *      * *
A5
İçimde bir ateş yanıyor
Bedenim dar gelir oldu
Ateşime ister körüklerle gel
İster suyla

A5
İstediğin kadar konuş benimle
İstediğin kadar yalan söyle
Beni ben yapan içimdeki sesleri
Susturamazsın

A5
İçine girdiğin küçük kaygan deliği 
Yeni ve büyük bir dünya mı sandın?
İstersen bir aynayla yardım edeyim
Ama umursamazsın..


Bridge Solo

e |-------------|
B |-------------|
G |-------------|
D |------------2|
A |--0-1--4-5---|
E |-------------|

G5
Merak etmeden duramıyorum
Bb5
Geceleri nasıl uyuyorsun
G5
Beni boşver kendine cevap ver
Bb5                         A5
Lütfen bu kez dürüst olur musun?

A5                                 G5
Ben şarkımı söylerken istersen sesi açarsın
      Bb5                       A5
İstersen kısıp bunu da yok sayarsın
A5                             G5
Kimbilir belki gülümser belki ağlarsın
     Bb5                      A5
Yüreğimdeki sesleri susturamazsın..

A5
Bir yanım seni hala düşünüyor
Bİr yanım sana fena kızgın
Yalnız sen ve ben biliyoruz olanları
Ama unutturamazsın

A5
Sakın nefret ettiğimi düşünme
Bende böyle duygular barndıramazsın
Geçmiş hiç yaşanmamış gibi davransan da
Baştan yazamazsın..

[Bridge Solo]

Merak etmeden...
Nakarat...

[Solo A]

Distorition Solo B:
e |--------------------|---------------------------------|
B |--------------------|---------------------------------|
G |--------------------|----------------7-6--------------|
D |--------------------|--------------------7-5--7-5---5-|
A |---5-/7---7~-7-7--7~|-7-7---7-5-------------------7---|
E |---3-/5-------------|-----------6---------------------|
Oylar:

Oy Sayısı: 2
 
  Dönemlere göre oylar
  Son 7 Gün 0 0 0 0 0 0.00
  Son 1 Ay 0 0 0 0 0 0.00
  Son 1 Sene 0 0 0 0 0 0.00
  Tümü 0 0 0 1 1 4.50
1 2 3 4 5 ORT
Oy Toplamları
1 2 3 4 5
 
Yorumlar:

 
lovelydeath  

Üyelik Derecesi:
  


Üsttekilerin çoğuna katılıyorum. Distortion solo denilen kısımlar biraz farklı galiba ama söz kısımlarında tamamen Am basabilirsiniz. tab olarak da ben böle çıkardım

A-----12-- 12-12---.................
N.H N.H


İntroyu da ben eklemiş olayım. 1 oktav aşağıdan da çalabilirsiniz bunu

Giriş kısmını da çıkardığım kadarıyla yazayım.

e-----6------6---5----------------3------------------6-----6--5--------------3---------------------------------------------------------------------------------------------------------------------
B--------8-----------------5h6-------6-5-3-------------8--------0----5h6-------6--5--3---2-3-2-------------------------------------------------------------------------------------------------
G----------------------------------------------0--------------------------------------------------------4-3-4---------------------------------------------------------------------------------------
D----------------------------------------------------------------------------------------------------------------4-5-4------------------------------------------------------------------------------
A--------------------------------------------------------------------------------------------------------------------------6-5-6--------------------------------------------------------------------
E----------------------------------------------------------------------------------------------------------------------------------------------------------------------------------------------------


Not son kısımdaki gam hangi gamdan yukarı çıkıyor emin değilim (açıkcası hangi gam diye kasmadım ama muhtemelen Am) çok emin değilim son 5-6 notadan.

Sözlerin başladığı yerde de 12. perdede A telinde 1 normal 2 naturel harmoniğini vurarak eşlik ediyor şarkıdaki gitar.

Eleştirileriniz için: to_baha@yahoo.com

 

Mesajın Yazıldığı Tarih: 28 Ağustos 2006 17:58:55

Gönderen: sacred_key  [12 Ağustos 2006 14:21:34]
Okunma Sayısı: 7190


 


Forum | Aktif Üyeler | Sohbet | Mesaj Merkezi | Müzik Dinle | Müzik Listelerim | Video İzle

Yerli Gruplar | Yabancı Gruplar | Amatör Gruplar | Demolar

Biyografiler | Diskografiler | Sanatçı Fotoğrafları | Şarkı Sözleri | Akorlar ve Tablar | Basın Bilgileri

Üyelik | Ayarlar | Üye Ara | İletişim | Reklam



Site içerisindeki materyallerin kaynak gösterilmeden kopyalanması ve yayınlanması yasaktır.
Copyright © 2007 Anatolianrock.com