Ana Sayfa


















Şebnem Ferah

> Ateşe Yakın Tab

 Biyografi | Diskografi | Fotoğraflar | Şarkı Sözleri | Akorlar ve Tablar | Forum

Ateşe Yakın Tab
İntro...
E-----------------------------I
B--------0-3s1-0-----------1--I
G------2---------2-----2------I
D----2---------------2---2----I
A--0---------------0----------I
E-----------------------------I

Bir tohum yaptım...[Bir kayık iki kürek...]
E------0-3-------------0-3----------/------0-3-------------0-7---3------I             
B----3-----3s1-0-----3-----3s1-0----/----3---3-1p0-------3---5---0------I(x3)         
G------2---------2-----2---------2--/----2---------2-0---2-----5---2-0--I         
D----2---2-----------2---2----------/--3---3-----------3---3------------I  {1}       
A--0---------------0----------------/-----------------------------------I
E-----------------------------------/-----------------------------------I

Çok özledim...
E------0--------0----------0----------/--------0------3-0---------0-0-------I         
B--3-----3--------0----------3-0-1----/--3---3-0------3-----------0---0-----I     
G----2--------2----------2---2-----2--/----2--------2-----------1-------1---I {2} 
D--3---3----3---3-3----3---3----------/--3--------3-----------2-----------2-I
A--------------------0----------------/-------------------------------------I
E-------------------------------------/---------------------0---------------I

Gördüğüm en son ışık....
E-----------------------------------/--------3---------------------------I (x2)      
B------1-0-3s1-0-------1-0-1---1----/----0-3---3-1-3-3----0-3-1-3-1-3-0--I
G----------------2-----------2---2--/--0----------------0----------------I     {3}    
D----2---------------2--------------/------------------------------------I
A--0---------------0----------------/------------------------------------I
E-----------------------------------/------------------------------------I

E---------------------I
B------1-0-3s1-0-1----I
G------------------2--I {4}
D----2----------------I
A--0------------------I
E---------------------I


---TEKRAR{1,2,3(x2),4}---

------------------------------------------------------------------------------
SOLO...

E--------------------/-------------------I
B---------------sus--/------1-0-1--------I
G-----------sus------/--2---------2-0h2--I 
D------sus-----------/----2--------------I
A--sus---------------/--0----------------I
E--------------------/-------------------I

E-------------------/-------------------I (x2)
B------1-0-3s1-0----/------1-0-1--------I
G----------------2--/--2---------2-0h2--I 
D----2--------------/----2--------------I
A--0----------------/--0----------------I
E-------------------/-------------------I

E------------------/--------3----------/--------0-0-------I
B-----1-0-3s1-0----/----0-3---3-1-3-0--/--------0--1---1--I
G---------------2--/--0----------------/------1------1----I
D---2--------------/-------------------/----2-------------I
A-0----------------/-------------------/------------------I
E------------------/-------------------/--0---------------I

-------------------------------------------------------------------------------

---TEKRAR{3(x4)}---  Gördüğüm en son ışık...

Outro...
E----------------------I
B------1-0-3s1-0----1--I
G----------------2-2---I 
D----2-----------------I
A--0-------------------I
E----------------------I
Oylar:

Oy Sayısı: 0
 
  Dönemlere göre oylar
  Son 7 Gün 0 0 0 0 0 0
  Son 1 Ay 0 0 0 0 0 0
  Son 1 Sene 0 0 0 0 0 0
  Tümü 0 0 0 0 0 0
1 2 3 4 5 ORT
Oy Toplamları
1 2 3 4 5
 
Yorumlar:

 

Gönderen: _Adela_  [09 Aralık 2011 00:07:08]
Okunma Sayısı: 1440


 


Forum | Aktif Üyeler | Sohbet | Mesaj Merkezi | Müzik Dinle | Müzik Listelerim | Video İzle

Yerli Gruplar | Yabancı Gruplar | Amatör Gruplar | Demolar

Biyografiler | Diskografiler | Sanatçı Fotoğrafları | Şarkı Sözleri | Akorlar ve Tablar | Basın Bilgileri

Üyelik | Ayarlar | Üye Ara | İletişim | Reklam



Site içerisindeki materyallerin kaynak gösterilmeden kopyalanması ve yayınlanması yasaktır.
Copyright © 2007 Anatolianrock.com